>
 >
Killed A Cat

Killed A Cat Guitar Tabs

Kenny Rankin - Killed A Cat chords, tabs, tablatures, lyrics

Guitar lessons | Add/correct | Request | Top 50 tabs Artists:  A B C D E F G H I J K L M N O P Q R S T U V W X Y Z 0-9

Killed A Cat Guitar Tabs – Kenny Rankin

CD, Sheet music, Poster

Do you like Killed A Cat? Share with your friends now
Tabs
#------------------------------------------------------------------------------##


Kenny Rankin - Killed a cat

Standard tuning
capo on 2nd fret

chords:

C#sus2      x46644
Emaj7       0x1100
F#/b        x2432x 
C#m/a	    x0212x 
G#/c#       x46544
B5 	    x2x4x2
A5/f#       202xx0
C#7sus4/e   024122
Esus4/a	    x0220x
G#m/maj7/d# x65444
C#sus4/b    x2412x
A/d	    xx0655
B	    x24x42
E           x76x5x
D#m/f# 	    xx434x
E5/b	    xxx45x
B/d#	    x6444x
E/a	    x021xx
G#m7	    464444
A	    x77655
Fm/c#	    x46564
G#m	    466444
F#5/b	    x24x22    

Intro:
  C#sus2       Emaj7        F#/b        C#m/a     C#sus2  G#/c#
|-------4------------0--------------------------0-------4-----------|
|---------4------------0--------2---2-------2---2-------4---6p4-----|
|-----6------------1------------3---3-------1-------------------5---|
|---6-------6----1-------1----4---4-------2---2-------6---6---------|
|-4-------------------------2-----------0-----------4-------------4-|
|--------------0----------------------------------0-----------------|

  Emaj7       B5              A5/f#             C#sus2  G#/c# 
|-------0---------2h4p2-------------0h2p0-------------4--------|
|---------0-------------4p2---------------2p0---------4---4----|
|-----1---------4-----------3-----------------1-----------5----|
|---1-------1---------------------2-----------------6---6---6--|
|-------------2-----------------0-----------------4------------|
|-0---------------------------2-----------------0--------------|
                                                            Pa de 

  Emaj7     C#7sus4/e     Esus4/a   C#sus2  G#/c#
|-----0---0-----------------------0-------4--------|
|-----0---0-------2---2-------0---0-------4---4----|
|-----------------1---1-------2---------------5----|
|---1---1-------4---4---4---2---2-------6---6---6--|
|-------------2-----------0-----------4------------|
|-0---------0-----------------------0--------------|
  da  da              Pa da da da da        Pa de da 

  Emaj7       C#sus4/b    Esus4/a   C#sus2  G#/c#
|-----0---0-----------------------0-------4--------|
|-----0---0-------2---2-------0---0-------4---4----|
|-----------------1---1-------2---------------5----|
|---1---1---1---4---4---4---2---2---2---6---6---6--|
|-------------2-----------0-----------4------------|
|-0------------------------------------------------|
  da          da da da, da da da da             Pa de 

  Emaj7       C#sus4/b    Esus4/a   
|-----0---0-----------------------0-|
|-----0---0-------2---2-------0---0-|
|-----------------1---1-------2-----|
|---1---1---1---4---4---4---2---2---|
|-------------2-----------0---------|
|-0---------------------------------|
  da da       pa da da, da da da da,   pa de da

  C#sus2    G#m/maj7/d#   C#m/a                      C#sus2 G#/c#
|-------4---------4---4-------0---5---0------------------4--------|
|-----4-4---------4---4-------2---2---2------------------4---4----|
|-----4---------4---4---4---1---1---1------------------------5----|
|---6-----6---5----------------------------------------6---6------|
|-----------6-------------0---------------------11S2-4------------|
|-4---------------------------------------------------------------|
  da da               pa da da da da da da da da             take a

Verse 1:
  Emaj7       C#sus4/b    Esus4/a     C#sus2  G#/c#
|-----0---0-----------------------0-------4--------|
|-----0---0-------2---2-------0---0-------4---4----|
|-----------------1---1-------2---------------5----|
|---1---1---1---4---4---4---2---2---2---6---6------|
|-------------2-----------0-----------4------------|
|-0------------------------------------------------|
  look outside  someone's killed a cat      In the


  Emaj7     C#7sus4/e     Esus4/a   C#sus2  G#/c#
|-----0---0-----------------------0-------4--------|
|-----0---0-------2---2-------0---0-------4---4----|
|-----------------1---1-------2---------------5----|
|---1---1---1---4---4---4---2---2---2---6---6------|
|-------------2-----------0-----------4------------|
|-0------------------------------------------------|
  city        that is all there is to that.  A man can

  Emaj7     C#7sus4/e     Esus4/a    C#7sus4/e 
|-----0---0-----------------------0--------------------|
|-----0---0-------2---2-------0---0-------2-------0----|
|-----------------1---1-------2-----------1-------1----|
|---1---1---1---4---4---4---2---2-------4-------2------|
|-------------2-----------0-----------2-------0--------|
|-0----------------------------------------------------|
  die there   no one ever know his name           In the 
 
  C#sus2    G#m/maj7/d#   C#m/a       C#7sus4/e
|-------4---------4-------------5-0---0----|
|---------4-------4-----------2-------2----|
|-----4---------4---4-------1-------1-1----|
|---6-----6---5-------4--------------------|
|-----------6-------------0----------------|
|-4---------------------0------------------|
  city                It's always been the same.  Pa de

  C#sus2      G#m/maj7/d#  C#m/a       A/d
|-------4---------4--------------5-0---5----|
|---------4---------4----------2-------5----|
|-----4-----4---4------------1---------6----|
|---6---------5----------1-----------0------|
|--------------------------0----------------|
|-4--------------------4--------------------|
  da da da            pa de da da  da da da da

  C#sus2  G#m/maj7/d#
              Emaj7       B             Esus4/a
|-----4---------------0-------2-------------0------|
|-----4---4---------0---0-------4-2-------0---2----|
|---------5-------1-----------------3-2------------|
|---6---6---6---1-----------4-----------2----------|
|-4-----------------------2------------------------|
|-------------0------------------------------------|

  G#m/maj7/d#   E             D#m/f#   E5/b        C#sus4
|-----4------------------------------------------------4----|
|---------4---------5-------7-4----------5-2----------------|
|-------5---5---------4---6-----3------4--------------------|
|---6---------6---6-----6---------4------------6-----6------|
|-4-------------7----------------------------------4--------|
|-----------------------------------------------------------|

Chorus:                                                        New
  Emaj7       B/d#        E/a         C#sus2
|---------0-----------------------0----------------|
|-----0-----------4---7-------------------4--------|
|---1---1-----------4---------1---------------6----|
|---------------4-----------2---2-------6---6------|
|-------------6-----------0-----------4------------|
|-0------------------------------------------------|
  York                        you're a mother. And like no 

  Emaj7       B/d#        E/a         C#sus2
|---------0-----------------------0----------------|
|-----0-----------4---7-------------------4--------|
|---1---1-----------4---------1---------------6----|
|---------------4-----------2---2-------6---6------|
|-------------6-----------0-----------4------------|
|-0------------------------------------------------|
  other       you been oh so gooed to me.      I re- 

  Emaj7       B/d#        E/a         C#sus2
|---------0-----------------------0-----------0----|
|-----0-----------4---7-------------------4--------|
|---1---1-----------4---------1--------------------|
|---------------4-----------2---2-----------6------|
|-------------6-----------0-------------6----------|
|-0-----------------------------------4------------|
  member      how you felt when I was innocent 

    G#m/maj7/d#     G#m7         A            Fm/c#        G#m
|-------4-----------4------------5------------4------------4------|
|-------4-----------4------------5------------6------------4------|
|-----4---4---------4------------6------------5------------4------|
|-6-5-------5---4---4------------7------------6------------6------|
|-------------6-----6------------7------------4------------6------|
|----------------------------------------------------------4------|
                                                             pa de

  C#sus2      G#m/maj7/d# C#m/a      
|-----------------0---------------4---|
|-----4---4-------0-----------4---4---|
|-----4---4-------------------4-------|
|---4---4---4---2---2-------6---6-----|
|-6-----------0-------0---------------|
|-------------------------4-----------|
  da  da da da da pa da da pa da da pa pa pa pa pa pa pa.     pa de  

  Emaj7     C#7sus4/e     Esus4/a   C#sus2  G#/c#
|-----0---0-----------------------0-------4--------|
|-----0---0-------2---2-------0---0-------4---4----|
|-----------------1---1-------2---------------5----|
|---1---1---1---4---4---4---2---2-------6---6---6--|
|-------------2-----------0-----------4------------|
|-0---------------------------------0--------------|
  da  da      Pa da da da pa da da da pa pa    pa de 

  Emaj7     C#7sus4/e     Esus4/a   C#sus2  G#/c#
|-----0---0-----------------------0-----|
|-----0---0-------2---2-------0---0-----|
|-----------------1---1-------2---------|
|---1---1---1---4---4---4---2---2---2---|
|-------------2-----------0-------------|
|-0-------------------------------------|
  da da    pa da pa da da da da da da da    
                                    In the    

Bridge:
  C#sus2    G#m/maj7/d#   C#m/a       C#7sus4/e
|-------4---------4-------------5-0---0----|
|---------4-------4-----------2-------2----|
|-----4---------4---4-------1-------1-1----|
|---6-----6---5-------4--------------------|
|-----------6-------------0----------------|
|-4---------------------0------------------|
  city                It's always been that way.  

  C#sus2      G#m/maj7/d#  C#m/a       A/c#
|-------4---------4--------------5-0---5-----------------------|
|---------4---------4----------2-------5--------------------4--|
|-----4-----4---4------------1---------6--------------------5--|
|---6---------5----------1-----------0--------------------6----|
|--------------------------0---------------------------4-------|
|-4--------------------4---------------------------------------|
  da da da            pa de da da  da da da da                take a

Verse 2:
  Emaj7     C#7sus4/e     Esus4/a     C#sus2  G#/c#
|-----0---0-----------------------0-------4--------|
|-----0---0-------2---2-------0---0-------4---4----|
|-----------------1---1-------2---------------5----|
|---1---1---1---4---4---4---2---2---2---6---6---6--|
|-------------2-----------0-----------4------------|
|-0------------------------------------------------|
  look outside  someone's killed a cat      In the

  Emaj7     C#7sus4/e     Esus4/a   
|-----0---0------------------------|
|-----0---0-------2---2-------0----|
|-----------------1---1-------2----|
|---1---1---1---4---4---4---2------|
|-------------2-----------0--------|
|-0--------------------------------|
  city        that is all there is to that. 

  F#5/b       Esus4/a     C#7sus4/e   Esus4/a     F#/b     
|-----2-----------------------------------------------2-|
|-----2-----------0-----------2-----------0-----------2-|
|-----------------2-----------1-----------2-----------3-|
|---4-----------2-----------4-----------2-----------4---|
|-2-----------0-----------2-----------0-----------2-----|
|-------------------------------------------------------|





Comments


Popular Kenny Rankin tabs & chords
Havent We Met Chords
Hiding Inside Myself Chords
Regrets Chords
What Matters Most 1 Chords
What Matters Most 2 Chords
Pussywillows Cattails Tabs
Havent We Met Ukulele
Heres That Rainy Day Ukulele
Hiding Inside Myself Ukulele
What Matters Most Ukulele


Song lyrics



↑ Back to top | Tablatures and chords are parodies/interpretations of the original songs. You may use it for private study, scholarship, research or language learning purposes only
© 2014 AZChords.com Contact us | Privacy policy | DMCA | Add/correct tabs | Request tabs | Top 50 tabs