>
 >
I Go Back

I Go Back Guitar Tabs

Kenny Chesney - I Go Back chords, tabs, tablatures, lyrics

Guitar lessons | Add/correct | Request | Top 50 tabs Artists:  A B C D E F G H I J K L M N O P Q R S T U V W X Y Z 0-9

I Go Back Guitar Tabs – Kenny Chesney

CD, Sheet music, Poster

Do you like I Go Back? Share with your friends now
ChordsTabsUkulele
-------------------------------------------------------------------------------
                             I go back-Kenny Chesney
-------------------------------------------------------------------------------

Tuning:standard
ALL EAR TRANSCRIBED WATCH THE CRITICISM.THANKS AND ENJOY! :)

Listen for timing

Intro:also the 1st verse.

Guitar 1: electric:play as many times as needed.

e|---------------------------------------------------------------------------|
B|------2--------------------------------------------------------------------|
G|-1----2--------------------------------------------------------------------|
D|-2----2--------------------------------------------------------------------|
A|-2----0--------------------------------------------------------------------|
E|-0-------------------------------------------------------------------------|

Guitar 2:electric:palm mute.play as many times as needed

e|---------------------------------------------------------------------------|
B|---------------------------------------------------------------------------|
G|---------------------------------------------------------------------------|
D|-10-10-10-10-10-10-10-10-10-10-10-10-10-10-10-10-10-10-10-10-10-10-10-10-10|
A|---------------------------------------------------------------------------|
E|---------------------------------------------------------------------------|

Guitar 3: acoustic:joins in after guitar 1 and 2.Plays as many times as needed.

e|-----------------------------------------------|
B|-------------4---2-2-2-x-2-2-3-----------------|
G|-1-1-1-x-1-1-1---2-2-2-x-2-2-2-----------------|
D|-2-2-2-x-2-2-2---2-2-2-x-2-2-2-----------------|
A|-2-2-2-x-2-2-2---0-0-0-x-0-0-0-----------------|
E|-0-0-0-x-0-0-0---------------------------------|

Verse:

Guitar 1: electric:play as many times as needed.

e|-------------------------------------------------------------------------------|
B|----------2--------------------------------------------------------------------|
G|-----1----2--------------------------------------------------------------------|
D|---0-2----2--------------------------------------------------------------------|
A|0h2--2----0--------------------------------------------------------------------|
E|-----0-------------------------------------------------------------------------|

Guitar 2:electric:palm mute.play as many times as needed

e|---------------------------------------------------------------------------|
B|---------------------------------------------------------------------------|
G|---------------------------------------------------------------------------|
D|-10-10-10-10-10-10-10-10-10-10-10-10-10-10-10-10-10-10-10-10-10-10-10-10-10|
A|---------------------------------------------------------------------------|
E|---------------------------------------------------------------------------|

Guitar 3: acoustic:joins in after guitar 1 and 2.Plays as many times as needed.

e|-----------------------------------------------|
B|-------------4---2-2-2-x-2-2-3-----------------|
G|-1-1-1-x-1-1-1---2-2-2-x-2-2-2-----------------|
D|-2-2-2-x-2-2-2---2-2-2-x-2-2-2-----------------|
A|-2-2-2-x-2-2-2---0-0-0-x-0-0-0-----------------|
E|-0-0-0-x-0-0-0---------------------------------|

Chorus:

Guitar 2:electric:palm mute.play as many times as needed

e|---------------------------------------------------------------------------|
B|---------------------------------------------------------------------------|
G|---------------------------------------------------------------------------|
D|-10-10-10-10-10-10-10-10-10-10-10-10-10-10-10-10-10-10-10-10-10-10-10-10-10|
A|---------------------------------------------------------------------------|
E|---------------------------------------------------------------------------|

Guitar 3: acoustic:joins in after guitar 1 and 2.Plays as many times as needed.

e|-----------------------------------------------|
B|-------------4---2-2-2-x-2-2-3-----------------|
G|-1-1-1-x-1-1-1---2-2-2-x-2-2-2-----------------|
D|-2-2-2-x-2-2-2---2-2-2-x-2-2-2-----------------|
A|-2-2-2-x-2-2-2---0-0-0-x-0-0-0-----------------|
E|-0-0-0-x-0-0-0---------------------------------|

Guitar 1:plays at the end the chorus.

e|-------------------------------------------|
B|-------------------------------------------|
G|--------10-10-12-12--15-15-----------------|
D|--10-10------------------------------------|
A|-------------------------------------------|
E|-------------------------------------------|

Verse 2:

Guitar 2:electric:palm mute.play as many times as needed

e|---------------------------------------------------------------------------|
B|---------------------------------------------------------------------------|
G|---------------------------------------------------------------------------|
D|-10-10-10-10-10-10-10-10-10-10-10-10-10-10-10-10-10-10-10-10-10-10-10-10-10|
A|---------------------------------------------------------------------------|
E|---------------------------------------------------------------------------|

Guitar 3: acoustic:joins in after guitar 1 and 2.Plays as many times as needed.

e|-----------------------------------------------|
B|-------------4---2-2-2-x-2-2-3-----------------|
G|-1-1-1-x-1-1-1---2-2-2-x-2-2-2-----------------|
D|-2-2-2-x-2-2-2---2-2-2-x-2-2-2-----------------|
A|-2-2-2-x-2-2-2---0-0-0-x-0-0-0-----------------|
E|-0-0-0-x-0-0-0---------------------------------|

Guitar 1:

e|------------------------------------------------------------------------------|
B|------2-------2--------2----------2--------2-----2----------------------------|
G|--1-x-2---1-x-2----1-x-2------1-x-2----1---2---1-2----------------------------|
D|--2-x-2---2-x-2----2-x-2------2-x-2----2---2---2-2------0---------------------|
A|--2-x-0---2-x-0----2-x-0------2-x-0----2---0---2-0--0h2-----------------------|
E|--0-x-----0-x------0-x--------0-x------0-------0------------------------------|

Chorus:

Guitar 2:electric:palm mute.play as many times as needed

e|---------------------------------------------------------------------------|
B|---------------------------------------------------------------------------|
G|---------------------------------------------------------------------------|
D|-10-10-10-10-10-10-10-10-10-10-10-10-10-10-10-10-10-10-10-10-10-10-10-10-10|
A|---------------------------------------------------------------------------|
E|---------------------------------------------------------------------------|

Guitar 3: acoustic:joins in after guitar 1 and 2.Plays as many times as needed.

e|-----------------------------------------------|
B|-------------4---2-2-2-x-2-2-3-----------------|
G|-1-1-1-x-1-1-1---2-2-2-x-2-2-2-----------------|
D|-2-2-2-x-2-2-2---2-2-2-x-2-2-2-----------------|
A|-2-2-2-x-2-2-2---0-0-0-x-0-0-0-----------------|
E|-0-0-0-x-0-0-0---------------------------------|

Guitar 1:plays at the end the chorus.

e|--------------------------------------22------------------------15-15-15-17-17-17|
B|---------------------------------------------12-12-12--15-15-15------------------|
G|----14-14-----14-14-14-14p12-10h12-14--------------------------------------------|
D|---------------------------------------------------------------------------------|
A|---------------------------------------------------------------------------------|
E|---------------------------------------------------------------------------------|

Pre-Breakdown

Guitar 3: acoustic:joins in after guitar 1 and 2.Plays as many times as needed.
e|-----------------------------------------------|
B|-------------4----2-2-2-x-2-2-3----------------|
G|-1-1-1-x-1-1-1----2-2-2-x-2-2-2----------------|
D|-2-2-2-x-2-2-2----2-2-2-x-2-2-2----------------|
A|-2-2-2-x-2-2-2----0-0-0-x-0-0-0----------------|
E|-0-0-0-x-0-0-0---------------------------------|

Chorus:

Guitar 2:electric:palm mute.play as many times as needed

e|---------------------------------------------------------------------------|
B|---------------------------------------------------------------------------|
G|---------------------------------------------------------------------------|
D|-10-10-10-10-10-10-10-10-10-10-10-10-10-10-10-10-10-10-10-10-10-10-10-10-10|
A|---------------------------------------------------------------------------|
E|---------------------------------------------------------------------------|

Guitar 3: acoustic:joins in after guitar 1 and 2.Plays as many times as needed.

e|-----------------------------------------------|
B|-------------4----2-2-2-x-2-2-3----------------|
G|-1-1-1-x-1-1-1----2-2-2-x-2-2-2----------------|
D|-2-2-2-x-2-2-2----2-2-2-x-2-2-2----------------|
A|-2-2-2-x-2-2-2----0-0-0-x-0-0-0----------------|
E|-0-0-0-x-0-0-0---------------------------------|

Guitar 1:electric

e|------------------------------------|
B|------------------------------------|
G|---14-17-14~------------------------|
D|------------------------------------|
A|------------------------------------|
E|------------------------------------|

Breakdown

Verse:

Guitar 1: electric:play as many times as needed.

e|---------------------------------------------------------------------------|
B|------2--------------------------------------------------------------------|
G|-1----2--------------------------------------------------------------------|
D|-2----2--------------------------------------------------------------------|
A|-2----0--------------------------------------------------------------------|
E|-0-------------------------------------------------------------------------|

Guitar 2:electric:palm mute.play as many times as needed

e|---------------------------------------------------------------------------|
B|---------------------------------------------------------------------------|
G|---------------------------------------------------------------------------|
D|-10-10-10-10-10-10-10-10-10-10-10-10-10-10-10-10-10-10-10-10-10-10-10-10-10|
A|---------------------------------------------------------------------------|
E|---------------------------------------------------------------------------|

Guitar 3: acoustic:joins in after guitar 1 and 2.Plays as many times as needed.

e|-----------------------------------------------|
B|-------------4---2-2-2-x-2-2-3-----------------|
G|-1-1-1-x-1-1-1---2-2-2-x-2-2-2-----------------|
D|-2-2-2-x-2-2-2---2-2-2-x-2-2-2-----------------|
A|-2-2-2-x-2-2-2---0-0-0-x-0-0-0-----------------|
E|-0-0-0-x-0-0-0---------------------------------|
Outro:

Guitar 2:electric:palm mute.play as many times as needed

e|---------------------------------------------------------------------------|
B|---------------------------------------------------------------------------|
G|---------------------------------------------------------------------------|
D|-10-10-10-10-10-10-10-10-10-10-10-10-10-10-10-10-10-10-10-10-10-10-10-10-10|
A|---------------------------------------------------------------------------|
E|---------------------------------------------------------------------------|

Guitar 3: acoustic:joins in after guitar 1 and 2.Plays as many times as needed.

e|-----------------------------------------------|
B|-------------4----2-2-2-x-2-2-3----------------|
G|-1-1-1-x-1-1-1----2-2-2-x-2-2-2----------------|
D|-2-2-2-x-2-2-2----2-2-2-x-2-2-2----------------|
A|-2-2-2-x-2-2-2----0-0-0-x-0-0-0----------------|
E|-0-0-0-x-0-0-0---------------------------------|

Guitar 1:electric

e|------------------------------------|
B|------------------------------------|
G|---14-17-14~------------------------|
D|------------------------------------|
A|------------------------------------|
E|------------------------------------|



| b bend
| /  slide up
| \  slide down
| h  hammer-on
| p  pull-off
| ~  vibrato
| +  harmonic
| x  Mute note
===========================================================================





Comments


Popular Kenny Chesney tabs & chords
Come Over 1 Chords
Don't Blink Chords
Shift Work Chords
Small Y'all Chords
Soul Of A Sailor Chords
The Good Stuff (right Way) Chords
Come Over Tabs
No Shoes, No Shirt, No Problems 1 Tabs
There Goes My Life Most Accurate Version Around! Tabs
Boats Ukulele


Song lyrics



↑ Back to top | Tablatures and chords are parodies/interpretations of the original songs. You may use it for private study, scholarship, research or language learning purposes only
© 2014 AZChords.com Contact us | Privacy policy | DMCA | Add/correct tabs | Request tabs | Top 50 tabs