» » »

Dumb Things Bass tabs (ver.1)

Artists:  A B C D E F G H I J K L M N O P Q R S T U V W X Y Z # 

Dumb Things Bass tabs (ver.1)

Kelly Paul
Rating:
0/5 (0 votes)

Hard to play? Try these video lessons and learn fast.
                DUMB THINGS - paul kelly
pretty basic

Standard tuning

I decided to tab this song bacause its pretty simple but still has some fundamental
bass lessons in it (aka the walking chorus).
This is both good for beginners and intermediate (intermediate should look at the
theory behind the verse the F major walk etc)

come in with guitar (around 10 seconds in )

fill one

   A C G D

G----------|
D----------|
A----3---5-|
E--5---3---|

main verse

  Am   Em
G-------------|
D-------------|  
A-------------|
E-5-0-0-3-0-5-|  with fill one

CHORUS
                             passing note
  F       C       Em      F (G)
G---------------------------------|                 |
D---------------------------------|                 |
A-----0-1-3-5-3-2---------(3)(5)--| MAIN VERSE (X1) |
E-1-3-------------0-3-5-7-1--3----|                 |

   F       G
G|-----------------|
D|-----------------|
A|------3-------5--|
E|-1--1----3--3----|


thats about it..a few different variations at the end but its all there
any queries comments..requests email
            
Hard to play? Try these video lessons and learn fast. | Correct




comments powered by Disqus
↑ Back to top | Tablatures and chords are parodies/interpretations of the original songs. You may use it for private study, scholarship, research or language learning purposes only