» » »

Too Much Of You Tabs (ver.1)

Artists:  A B C D E F G H I J K L M N O P Q R S T U V W X Y Z # 

Too Much Of You Tabs (ver.1)

Kelly Osbourne
Rating:
0/5 (0 votes)

Hard to play? Try these video lessons and learn fast.
                Kelly Osbourne - Too Much Of You

Ok it'S my first tab blablabla ....just enjoy!

Tune Down a Half Step

Intro/Verse
e|----------|---------|   ? I'm not sure about this      
b|----?-----|---------|         
g|-6--6-----|----5b---|            
d|-4--6--6--|-------6-|             
a|-4--4--6--|---------|                     
e|-------4--|---------|

Pre Chorus
e|---------------|
b|---------------|         
g|---------------|            
d|-8--4--8--6----|             
a|-8--4--8--6----|                     
e|-6--2--6--4----|

Chorus               
e|---------------|-----------|
b|---------------|-----------|         
g|-6-----?-------|--6--------|            
d|-6--6--8--4----|--6--6--4--|             
a|-4--6--6--4----|--4--6--4--|                     
e|----4--6--2----|-----4--2--|
            
Hard to play? Try these video lessons and learn fast. | Correct




comments powered by Disqus
↑ Back to top | Tablatures and chords are parodies/interpretations of the original songs. You may use it for private study, scholarship, research or language learning purposes only