» » »

Kelly Osbourne, Papa Don Preach Tabs (ver.1)

Artists:  A B C D E F G H I J K L M N O P Q R S T U V W X Y Z # 

Papa Don Preach Tabs (ver.1)

Kelly Osbourne Tabs
Rating:
0/5 (0 votes)
Papa Don	 Preach lessons Tabs too difficult? Try these video lessons and learn fast
                Intro: 
 
 E |------------------------------------------------
 B |------------------------------------------------
 G |------------------------------------------------     x2
 D |------------------------------------------------
 A |4--4--6--6--8--8--10--10--8--8--6--6--4--4--3--3
 E |------------------------------------------------


Verse 1 :
  (Papa I know you're going to be upset...)
  
 E |------------------------
 B |------------------------
 G |10--10--8--8--6--6--5--5     x3
 D |10--10--8--8--6--6--5--5	
 A |8---8---6--6--4--4--3--3
 E |------------------------


Pre-chorus:
  (The one you warned me all about...)

 E |----------------------------------------------
 B |----------------------------------------------
 G |6--6--6--6--6--6--6--6--8--8--8--8--8--8--8--8     x3
 D |6--6--6--6--6--6--6--6--8--8--8--8--8--8--8--8
 A |4--4--4--4--4--4--4--4--6--6--6--6--6--6--6--6
 E |----------------------------------------------

 E |--------
 B |--------
 G |10--6--8     x1
 D |10--6--8
 A |8---4--6
 E |--------


Chorus:
  (Papa don't preach, I'm in trouble deep...)

 E |------------------------------------------
 B |------------------------------------------
 G |10--10--8--6--6--6--8--8--8--8--8--8--8--8     x2   
 D |10--10--8--6--6--6--8--8--8--8--8--8--8--8
 A |8---8---6--4--4--4--6--6--6--6--6--6--6--6
 E |------------------------------------------

  (But I made up my mind...) 
 E |----------------------------------------------
 B |----------------------------------------------
 G |------------------------8--8--8--8--8--8--8--8     x1
 D |8--8--8--8--8--8--8--8--8--8--8--8--8--8--8--8 
 A |8--8--8--8--8--8--8--8--6--6--6--6--6--6--6--6
 E |6--6--6--6--6--6--6--6------------------------
 
 E |------------------------------------------
 B |------------------------------------------
 G |10--10--8--6--6--6--8--8--8--8--8--8--8--8     x2   
 D |10--10--8--6--6--6--8--8--8--8--8--8--8--8
 A |8---8---6--4--4--4--6--6--6--6--6--6--6--6
 E |------------------------------------------


Verse 2:
  (He says that he's going to marry me...)
 E |------------------------
 B |------------------------
 G |10--10--8--8--6--6--5--5     x1
 D |10--10--8--8--6--6--5--5	
 A |8---8---6--6--4--4--3--3
 E |------------------------


Pre-chorus
   (But my friends keep telling me to give it up)


Chorus


Interlude:
 
 E |------------------------
 B |------------------------
 G |10--10--8--8--6--6--5--5     x1
 D |10--10--8--8--6--6--5--5	
 A |8---8---6--6--4--4--3--3
 E |------------------------


Pre-chorus (little different):
  (Daddy, daddy if you could only see...)

 E |----------------------------------------------
 B |----------------------------------------------
 G |6--6--6--6--6--6--6--6--8--8--8--8--8--8--8--8     x3
 D |6--6--6--6--6--6--6--6--8--8--8--8--8--8--8--8
 A |4--4--4--4--4--4--4--4--6--6--6--6--6--6--6--6
 E |----------------------------------------------

 E |------------------------------------------------------
 B |------------------------------------------------------
 G |10--10--10--10--10--10--10--10--6--6--6--6--6--6--6--6
 D |10--10--10--10--10--10--10--10--6--6--6--6--6--6--6--6
 A |8---8---8---8---8---8---8---8---4--4--4--4--4--4--4--4
 E |------------------------------------------------------

 E |----------------------------------------------
 B |----------------------------------------------
 G |5--5--5--5--5--5--5--5--5--5--5--5--5--5--5--5
 D |5--5--5--5--5--5--5--5--5--5--5--5--5--5--5--5
 A |3--3--3--3--3--3--3--3--3--3--3--3--3--3--3--3
 E |----------------------------------------------


Chorus (little different):

 E |------------------------------------------
 B |------------------------------------------
 G |10--10--8--6--x--x--8--8--8--8--8--8--8--8     x2   
 D |10--10--8--6--x--x--8--8--8--8--8--8--8--8
 A |8---8---6--4--x--x--6--6--6--6--6--6--6--6
 E |------------------------------------------

 E |----------------------------------------------
 B |----------------------------------------------
 G |------------------------8--8--8--8--8--8--8--8     x1
 D |8--8--8--8--8--8--8--8--8--8--8--8--8--8--8--8 
 A |8--8--8--8--8--8--8--8--6--6--6--6--6--6--6--6
 E |6--6--6--6--6--6--6--6------------------------

 E |------------------------------------------
 B |------------------------------------------
 G |10--10--8--6--6--6--8--8--8--8--8--8--8--8     x2   
 D |10--10--8--6--6--6--8--8--8--8--8--8--8--8
 A |8---8---6--4--4--4--6--6--6--6--6--6--6--6
 E |------------------------------------------

Outro:

 E |------------------------------------------
 B |------------------------------------------
 G |10--10--8--6--6--6--8--8--8--8--8--8--8--8     x6   
 D |10--10--8--6--6--6--8--8--8--8--8--8--8--8
 A |8---8---6--4--4--4--6--6--6--6--6--6--6--6
 E |------------------------------------------

  end with  E |--
            B |--
            G |10
            D |10
            A |8-
            E |--
            

comments powered by Disqus
↑ Back to top | Kelly Osbourne Tabs for Papa Don Preach. Lyrics for acoustic guitar and electric guitar. Tablatures and chords are parodies/interpretations of the original songs. You may use it for private study, scholarship, research or language learning purposes only