» » »

Kelly Family, Nanana Tabs (ver.2)

Artists:  A B C D E F G H I J K L M N O P Q R S T U V W X Y Z # 

Nanana Tabs (ver.2)

Kelly Family Tabs
 Rating:
4/5 (5 votes)
Nanana lessons Tabs too difficult? Try these video lessons and learn fast
                this goes tru the whole song.


     E       G       D      C
-----0-------3-------2------0---|
----0-0-----0-0-----3-3----1-1--|
---0---0---0---0---2---2--0---0-|
------------------0-------------|
-------------------------3------|
--0-------3---------------------|repeat

Somethimes ou can hear:
  E          G          D          C
--0-0-0-0-0--3-3-3-3-3--2-2-2-2-2--0-0-0-0-0-|
--0-0-0-0-0--0-0-0-0-0--3-3-3-3-3--1-1-1-1-1-|
--0-0-0-0-0--0-0-0-0-0--2-2-2-2-2--0-0-0-0-0-|
--2-2-2-2-2--0-0-0-0-0--0-0-0-0-0--2-2-2-2-2-|
--2-2-2-2-2--2-2-2-2-2--0-0-0-0-0--3-3-3-3-3-|
--0-0-0-0-0--3-3-3-3-3--0-0-0-0-0--0-0-0-0-0-|
            
Submit corrections

comments powered by Disqus
↑ Back to top | Kelly Family Tabs for Nanana. Lyrics for acoustic guitar and electric guitar. Tablatures and chords are parodies/interpretations of the original songs. You may use it for private study, scholarship, research or language learning purposes only