>
 >
I Really Love You

I Really Love You Guitar Tabs

Kelly Family - I Really Love You chords, tabs, tablatures, lyrics

Guitar lessons | Add/correct | Request | Top 50 tabs Artists:  A B C D E F G H I J K L M N O P Q R S T U V W X Y Z 0-9

I Really Love You Guitar Tabs – Kelly Family

CD, Sheet music, Poster

Do you like I Really Love You? Share with your friends now
Tabs
Band:  The Kelly Family

Copyright (c)  (RECORD LABEL) (1999)
Version 1.0 - (28/03/06)



.  - palm mute           /  - slide up to
\  - slide down to       ~  - vibrato
h  - hammer on           b  - Bend
p  - pull off            Suffixes for bend
t  - tap                 f  - full bend    h - half bend
ph - pinched harmonic    q  - quarter bend t - tap bend
*  - see comment         ^  - Hold bend    r release bend
x  - Stuccatto           ~  - vibrato bend
,  - slight palm mute    () - ghost note, sustained note
"  - tremolo note        <> - Trill

Tunning E A D G B E
 

  Guitar 1(riff A)

E[-3---3-3-----3---3-3---------5-5-----3---3-3----|
B[-3---3-3-----4---4-4-----3---3-3-----3---3-3----|
G[-3-x-3-3-x-x-5-x-5-5-x-x-2-x-2-2-x-3-3-x-3-3-0--|
D[-5-x-5-5-x-x-5-x-----x-x-4-x-----x---5-x-5-5----|
A[-5---5-5-----------------------------5----------|
E[-3----------------------------------------------|
 Guitar 2
E[----3--3---------------------5-------3-----6----|
B[---3-----3---4--4--4-4p3---3---3-------3--------|
G[-----------3-5-----------2---------------3------|
D[------------------------------------------------|
A[------------------------------------------------|
E[-3----------------------------------------------|

 Guitar carries on playing riff A.

 Guitar 2

E-6\5--3--------5--5/6\5-3-----3-------|
B--------4------3----------3----3------|
G----------------------------3---3-----|
D--------------------------------------|
A--------------------------------------|
E--------------------------------------|

 Verse

E-----3-------3------------5--5----3------|
B---3---3-------4-\3-----3-------3---3----|
G---------3------------2---------------3--|
D-----------------------------------------|
A-----------------------------------------|
E-3---------------------------------------|

E-----3-------------3-----------5-------3------|
B---3---3----4----4---4----3--3---3---3---3----|
G---------3--5--5-------5--2----------------3--|
D----------------------------------------------|
A----------------------------------------------|
E-3--------------------------------------------|

 Bass enters

E------3------------3-----------5-------3--------|
B----3---3------4-4---4-------3----3--3---3---3--|
G----------3--5--5------5--2----------------3----|
D------------------------------------------------|
A------------------------------------------------|
E-3----------------------------------------------| 

E------3------------3--------------------3-------|
B----3---3----4---4---4-------1-3--3---3---3-----|
G----------3--5-5-------5--2-----------------3---|
D------------------------------------------------|
A------------------------------------------------|
E-3----------------------------------------------|


 Bridge

  Guitar 1
E[-3---3-3---3---3-3-------5-5---3---3-3----|
B[-4---4-4---3---3-3---3---3-3---3---3-3----|
G[-5-x-5-5-x-3-x-3-3-x-2-x-2-2-x-3-x-3-3-x--|
D[-5-x-5-5-x-5-x-5-5-x-4-x-4-4-x-5-x-5-5-x--|
A[-----------5---5-5-------------5---5-5----|
E[------------------------------------------|
 [Guitar 2
E[---------------3----------5--------3------|
B[-------------3--3----------------3---3----|
G[-----------------3-----7-5-7-5---------3--|
D[------------------5-----------------------|
A[------------------------------------------|
E[------------------------------------------|

 Drums enter

E-----3------------3--------------5----------3------|
B---3---3------4-----4---4------3---3----3-----3----|
G---------3--5---5-----5------2--------3---3-----3--|
D---------------------------0-----------------------|
A---------------------------------------------------|
E-3-------------------------------------------------| Rpt

 Bridge

E-----3-3---------3-----5--5--5-----6p5\3---|
B----4----4---------3-----------------------|
G---5-----------3-----3---------------------|
D--5----------5-----------------------------|
A-----------5-------------------------------|
E-------------------------------------------|

E-----3-3---------3-----5-----------3-------|
B----4----4---------3-------------3---3-----|
G---5-----------3-----3---7-5-7---------3---|
D--5----------5---------------------------5-|
A-----------5-------------------------------|
E-------------------------------------------|

 Chorus
 
  Guitar 1

E[-3---3-3---3---3-3---3---3-3---1---1-1----|
B[-3---3-3---3---3-3---4---4-4---1---1-1----|
G[-3---3-3---3---3-3---5---5-5-x-2---2-2----|
D[-5---5-5---5-x-5-5-x-5-x-5-5-x-3-x-3-3-x--|
A[-5-x-5-5-x-5-x-5-5-x-3-x-3-3-x-3-x-3-3-x--|
E[-3---3-3---3---3-3------------------------|
 [Guitar 2
E[-----3---------3----------3-------3-1-----|
B[---3---3-----3---3------4--4----1-----1---|
G[---------3---------3--5-----5-------------|
D[------------------------------------------|
A[------------------------------------------|
E[-3----------------------------------------| 


 Guitar 2
E-----3---------3----------3-------1-3/5\1-|
B---3---3-----3---3------4--4----1---------|
G---------3---------3--5-----5-------------|
D------------------------------------------|
A------------------------------------------|
E-3----------------------------------------| Rpt 

 Rpt Verse
 Rpt Bridge
 Rpt Chorus

 Backing for guitar solo is riff A 2 X

  Guitar solo
                          ~~~~~~              h     ~~~
E---------8-10-10-1010----11---------11-10--8-10p8-----|
B-8-10-11---------------8--------8-7---------------11--|
G------------------------------------------------------|
D------------------------------------------------------|
A------------------------------------------------------|
E------------------------------------------------------|
               ~~~                ~~~~~~~~~~~~
E-15-15-15\10-11---10-8----------/11-------------------|
B-----------------------11-10-8\7-----7--8-------------|
G------------------------------------------------------|
D------------------------------------------------------|
A------------------------------------------------------|
E------------------------------------------------------|

 Rpt Bridge with end fills

E---6-5-3------------|
B-x-------4----------|
G--------------------|
D--------------------|
A--------------------|
E--------------------|

E-6\5-3-5---/6\5-3---|
B---------3----------|
G--------------------|
D--------------------|
A--------------------|
E--------------------|

 Rpt chorus

 Outro

 Both guitars

E------3------------------(3)---------------------------------------|
B-----3-------------------(3)---------------------------------------|
G----3--------------------(3)---------------------------------------|
D---5---------------------(5)---------------------------------------|
A--5----------------------(5)---------------------------------------|
E-3-----------------------(3)---------------------------------------|





END





Comments


Popular Kelly Family tabs & chords
Angel Chords
Break Free Chords
I Can't Help Myself Chords
I Wanna Be Loved Chords
Oh God Chords
Stranger Chords
Wholl Come With Me Davids Song Chords
Why Dont You Go 1 Chords
Hiroshima Im Sorry Ukulele
Oh Johnny Ukulele


Song lyrics



↑ Back to top | Tablatures and chords are parodies/interpretations of the original songs. You may use it for private study, scholarship, research or language learning purposes only
© 2014 AZChords.com Contact us | Privacy policy | DMCA | Add/correct tabs | Request tabs | Top 50 tabs