>
 >
I Can't Help Myself 1

I Can't Help Myself 1 Guitar Tabs

Kelly Family - I Can't Help Myself 1 chords, tabs, tablatures, lyrics

Guitar lessons | Add/correct | Request | Top 50 tabs Artists:  A B C D E F G H I J K L M N O P Q R S T U V W X Y Z 0-9

I Can't Help Myself 1 Guitar Tabs – Kelly Family

CD, Sheet music, Poster

Do you like I Can't Help Myself 1? Share with your friends now
ChordsTabsTabs v2
-------------------------------------------------------------------------------
			     I can't help myself - The Kelly Family
-------------------------------------------------------------------------------






Tuning: Capo on the 1st fret, or without it.

Chords used:
C   x32010
Am  x02210
F   133211
G   355433




Intro:

Guitar #1:
  C                Am               F                G
e|---0------------|---0------------|-----1-0--------|----------|
B|-3-----3-1------|-3-----b3-1-----|---1-----3-1----|-5-3------| b=bend up
G|-----------0----|-----------2----|-2-----------2--|-----4----|
D|-------------2--|-------------2--|----------------|-------5--|
A|-3---3----------|-0---0----------|----------------|----------|
E|----------------|----------------|-1--------------|-3--------|


Guitar #2: 
  C                Am               F                G
e|-------0--------|-------0--------|-------1--------|-------3--|
B|-----1---1------|-----1---1------|-----1---1------|-----3----|
G|---0-------0----|---2-------2----|---2-------2----|---4------|
D|----------------|----------------|-------------3--|----------|
A|-3-----------2--|-0--------------|----------------|----------|
E|----------------|-------------3--|-1--------------|-3--------|


Note that the intro is a suggestion how to play it. 



Picking on 1st VERSE:
  C                Am               F                G
e|--------0--------|-------0--------|-------1--------|-------3---------|
B|------1---1------|-----1---1------|-----1---1------|-----3---3-------|
G|*---0-------0----|---2-------2----|---2-------2----|---4-------4----*|
D|*----------------|----------------|-------------3--|-------------5--*|
A|--3-----------2--|-0--------------|----------------|-----------------|
E|-----------------|-------------3--|-1--------------|-3---------------|





Verse:
   C
If I would tell you
     Am
How much you mean to me
  F                       G
I think you would not understand it.
     C
So I wait, I wait
   Am     
Until this day comes
     F              G
When you will understand me.

    C
But I can't help myself
Am                  F  
I can't stop myself
           G
I am going crazy
C
I can't stop myself
Am                    F 
Cannot control myself
           G		
I am going crazy



Chorus:
      C
And I love you
       
I want you
   F                C 
I wanna talk to you
            G
I wanna be with you
   C
I love you

I want you
   F                 G
I wanna talk to you
   G
I wanna be with you



Verse:
    C
I cannot change it
  Am                   F
I'm sure not making it
 		  G
One big hell of a fuss
  C
I cannot turn my back
     Am			  F
I've got to face the fact
	            G
Life without you is hazy



Chorus:
      C
And I love you
       
I want you
   F                C 
I wanna talk to you
            G
I wanna be with you
   C
I love you

I want you
   F                 G
I wanna talk to you
   G
I wanna be with you



Bridge:
Am                  F
Kiss me, thrill me, don't say goodbye
Am                   F
Hold me, love me, don't say goodbye
F         G		
Oh uho oh oh uho

              C
Don't say goodbye



Verse:
    C
But I can't help myself
Am		    F
I can't stop myself
          G
I'm going crazy
  C
I cannot turn my back
     Am			  F
I've got to face the fact
 		    G
Life without you is hazy



Chorus:
      C
And I love you
       
I want you
   F                C 
I wanna talk to you
            G
I wanna be with you
   C
I love you

I want you
   F                 G
I wanna talk to you
   G
I wanna be with you



Bridge:
F       G
Oh uho uho oh
F         G
No uho oh oh
            C
Kiss me goodbye







| /  slide up
| \  slide down
| h  hammer-on
| p  pull-off
| ~  vibrato
| +  harmonic
| x  Mute note
===============================================================================





Comments


Popular Kelly Family tabs & chords
Come Back To Me Chords
Every Baby Chords
Ill Swim Ill Swim Chords
Its Ok Now 1 Chords
Leave To The Spirits Chords
Please Don´T Go Chords
Come Back To Me Tabs
Cover The Road Ukulele
Ego Ukulele
Stranger Ukulele


Song lyrics



↑ Back to top | Tablatures and chords are parodies/interpretations of the original songs. You may use it for private study, scholarship, research or language learning purposes only
© 2014 AZChords.com Contact us | Privacy policy | DMCA | Add/correct tabs | Request tabs | Top 50 tabs