» » »

Calling Heaven Tabs (ver.1)

Artists:  A B C D E F G H I J K L M N O P Q R S T U V W X Y Z # 

Calling Heaven Tabs (ver.1)

Kelly Family
Rating:
0/5 (0 votes)

Hard to play? Try these video lessons and learn fast.
                

Note: The capo should be on the 1st fret.


Rhy. Fig. 1:
||------------0-----------|-----------0-----------|-----------0-----------|------------0h2---------|
||---------2-----2--------|--------2-----2--------|--------2-----2--------|---------3-------3------|
||*-----2-----------2-----|-----1-----------1-----|-----0-----------0-----|------2-------------2---|
||*--------------------2--|--------------------2--|--------------------2--|---0-------------------0|
||---0--------------------|--0--------------------|--0--------------------|------------------------|
||------------------------|-----------------------|-----------------------|------------------------|

|---------1------------|-----------0-----------|-----------0-----------|-----------0--------------||
|------3-----3---------|--------2-----2--------|--------0-----0--------|--------2-----2-----------||
|---2-----------2------|-----2-----------2-----|-----1-----------1-----|-----2-----------2-------*||
|0-----------------0---|--------------------2--|--------------------2--|----------------------2--*||
|----------------------|--0--------------------|-----------------------|--0-----------------------||
|----------------------|-----------------------|--0--------------------|--------------------------||


Rhy. fig. 2:
||------------0-----------|-----------0-----------|-----------0-----------|-----------1-----------|
||---------1-----1--------|--------1-----1--------|--------1-----1--------|--------1-----1--------|
||*-----0-----------0-----|-----0-----------0-----|-----2-----------2-----|-----2-----------2-----|
||*--------------------2--|--------------------2--|--------------------2--|--------------------3--|
||---3--------------------|--2--------------------|--0--------------------|-----------------------|
||------------------------|-----------------------|-----------------------|--1--------------------|

||------------0-----------|-----------0-----------|-----------0-----------|-------|
||---------1-----1--------|--------1-----1--------|--------1-----1--------|-------|
||*-----0-----------0-----|-----0-----------0-----|-----2-----------2-----|-----2-|
||*--------------------2--|--------------------2--|--------------------2--|-------|
||---3--------------------|--2--------------------|--0--------------------|-------|
||------------------------|-----------------------|-----------------------|--1----|

----1-----------|-----\-1-----||
-1-----1--------|-----/-1-----||
----------2-----|-----\-1----*||
-------------3--|-----/-3----*||
----------------|-----\-3-----||
----------------|-----/-1-----||


(w/ rhy. fig. 1 - 2x)
I'm waiting for my visit
They'll fill this room with flowers an' all
They'll put on their biggest smile
But only for a while

If only I could help it
If only mercy'd be on my side
I wouldn't have to die
And my family wouldn't cry

Bridge: (w/ rhy. fig. 2)
But the pain is getting far to strong
And medicine won't hold it for long
It's getting closer
So I'm waiting for someone to come
To come and take my soul where it belongs
But no one's coming, no one

Chorus: (w/ accords)
       A              E
So I'm calling heaven now
    F#-            D
I'm calling heaven now
A                E
Calling heaven's hand
          D
So heaven help

(w/ rhy. fig. 1)
I try to find the answer
I try to find the reason why I
I'm leaving them all behind
But there's something I will find

Bridge: (w/ rhy. fig. 2)
The blood's still running throught my heart
But my hairs are slowly falling apart
And I just can't take it
So I'm waiting for someone to come
To come and take my soul where it belongs
But no one's coming, no one

Chorus: (w/ accords - 2x)
       A              E
So I'm calling heaven now
    F#-            D
I'm calling heaven now
A                E
Calling heaven's hand
          D
So heaven help


Solo: (w/ rhy. fig. 2)

||---------------0--3--|--------------0--5--|--------------0--3--|--1--0--0--1--0--|
||---1--1--1--3--------|--1--1--1--3--------|--1--1--1--3--------|-----------------|
||*--------------------|--------------------|--------------------|-----------------|
||*--------------------|--------------------|--------------------|-----------------|
||---------------------|--------------------|--------------------|-----------------|
||---------------------|--------------------|--------------------|-----------------|

|---------------8---------|---------------8--/12--|--12--12--12--13--12--13--12----------10-------||
|--8--8--8--10-----10--8--|--8--8--8--10----------|------------------------------13--13------13---||
|-------------------------|-----------------------|----------------------------------------------*||
|-------------------------|-----------------------|----------------------------------------------*||
|-------------------------|-----------------------|-----------------------------------------------||
|-------------------------|-----------------------|-----------------------------------------------||


Chorus: (w/ accords - 2x)
       A              E
So I'm calling heaven now
    F#-            D
I'm calling heaven now
A                E
Calling heaven's hand
          D
So heaven help

(w/ rhy. fig. 1)
I see it in their faces
They know I will be leaving tonight
But somewhere down the line
I'm sure we'll meet again

(w/ rhy. fig. 1 - last 4 bars only)
But somewhere down the line
I'm sure we'll meet again

A
            
Hard to play? Try these video lessons and learn fast. | Correct




comments powered by Disqus
↑ Back to top | Tablatures and chords are parodies/interpretations of the original songs. You may use it for private study, scholarship, research or language learning purposes only