>
 >
Because It's Love 1

Because It's Love 1 Guitar Tabs

Kelly Family - Because It's Love 1 chords, tabs, tablatures, lyrics

Guitar lessons | Add/correct | Request | Top 50 tabs Artists:  A B C D E F G H I J K L M N O P Q R S T U V W X Y Z 0-9

Because It's Love 1 Guitar Tabs – Kelly Family

CD, Sheet music, Poster

Do you like Because It's Love 1? Share with your friends now
ChordsTabsTabs v2
E|----------------------|
B|----------------------|
G|----------------------|
D|------------------3-4-|
A|----------------------|
E|----------------------|

 
-------------------------|--------------------|------------------------|
-------------------------|--------------------|--------------2---------|
--1-------------------1--|--L-----------------|-----------3-----3---3--|
---------4---3--4--3-----|--------------------|------------------------|
-------------------------|--------------------|------------------------|
-------------------------|--------------------|------------------------|


  
------------------------|-------------------------|--------------------|
------------------------|-------------------------|--------------------|
--L--1--------L---------|--1-------------------1--|--L-----------------|
--------------------3-4-|---------4--3--4--3------|--------------------|
------------------------|-------------------------|--------------------|
------------------------|-------------------------|--------------------|


 
-----------------------|------------------------|---------------------------|
-----------------------|------------------------|---------------------------|
-----------------------|------------------------|--1----L---1------------1--|
-----------4---4----3--|--L--1--------L-----3-4-|--------------4--3--4------|
-----------------------|------------------------|---------------------------|
-----------------------|------------------------|---------------------------|



---------------------|--------------------------|-----------------------------|
---------------------|----------------2---------|------------------2---2--4---|
--L------------L-----|---------3---3-----3---3--|--L--1---1----L--------------|
---------------------|--------------------------|-----------------------------|
---------------------|--------------------------|-----------------------------|
---------------------|--------------------------|-----------------------------|


 
--1---------------1---|-----------------------|---------------------|
--------------2-------|--4--------L---1---4---|--L--2------------L--|
----------------------|-----------------------|---------------------|
----------------------|-----------------------|---------------------|
----------------------|-----------------------|---------------------|
----------------------|-----------------------|---------------------|



----------------1-----|--2-------------1-----|---------------------1--|
-----------4----------|-------------------4--|--L-----------2--4------|
----------------------|----------------------|------------------------|
----------------------|----------------------|------------------------|
----------------------|----------------------|------------------------|
----------------------|----------------------|------------------------|



--L---2-----1-------------|------------------1---2--|--L------L--------1------|
------------------4----2--|--L----------------------|----------------------4--|
--------------------------|----1-3------------------|-------------------------|
--------------------------|-------------------------|-------------------------|
--------------------------|-------------------------|-------------------------|
--------------------------|-------------------------|-------------------------|


---------------1--------------|------------------------|
--L----L-----------2-2-----2--|--L--------L------------|
-----------1-1-----------3----|------------------------|
------------------------------|------------------3-3-4-|
------------------------------|------------------------|
------------------------------|------------------------|


 
--------------------------|--------------------|--------------------------|
--------------------------|--------------------|----------------2---------|
--1--------------------1--|--L-----------------|---------3---3-----3---3--|
---------3---3---4--3-----|--------------------|--------------------------|
--------------------------|--------------------|--------------------------|
--------------------------|--------------------|--------------------------|



------------------------|----------------------------|----------------------|
------------------------|----------------------------|----------------------|
--L---1-----------------|--1----L-----------------1--|--L------L------------|
--------------------3-4-|-----------3---3--4--3------|----------------------|
------------------------|----------------------------|----------------------|
------------------------|----------------------------|----------------------|


  
------------1----1---2--|--1---------------------|---------------------------|
------------------------|-----4--------L---------|---------------------------|
---------1--------------|------------------------|--1----L---1------------1--|
------------------------|--------------------3-4-|-------------4-3--4--3-----|
------------------------|------------------------|---------------------------|
------------------------|------------------------|---------------------------|


  
---------------------|--------------------------|------------------------|
---------------------|----------------2---------|---------------2--2--4--|
--L--------L---------|---------3---3-----3---3--|--L--1------------------|
---------------------|--------------------------|------------------------|
---------------------|--------------------------|------------------------|
---------------------|--------------------------|------------------------|


--1-----------------1--|----------------------|---------------------|
--------------2--2-----|--4-----------1---4---|--L--2------------L--|
-----------------------|----------------------|---------------------|
-----------------------|----------------------|---------------------|
-----------------------|----------------------|---------------------|
-----------------------|----------------------|---------------------|


 
------------------1-----|--2------L--------1-----|---------------------1--|
--L---------4-----------|---------------------4--|--L-----------2--4------|
------------------------|------------------------|------------------------|
------------------------|------------------------|------------------------|
------------------------|------------------------|------------------------|
------------------------|------------------------|------------------------|


 
--L---2-----1--------------|------------------1--2--|--L------L--------1-----|
------------------4-----2--|--L---------------------|---------------------4--|
---------------------------|----1-3-----------------|------------------------|
---------------------------|------------------------|------------------------|
---------------------------|------------------------|------------------------|
---------------------------|------------------------|------------------------|


              
--------------1------------|---------------------|-------------------|
--L--------------2-2----2--|--L------------L-----|-------------------|
----------1-1---------3----|---------------------|-------------------|
---------------------------|---------------------|-------------------|
---------------------------|---------------------|-------------------|
---------------------------|---------------------|-------------------|


 
----------------------|------------------------|------------------------|
-----------4----6-----|--7------L--------6--4--|--L--------------4---6--|
----------------------|------------------------|--------------6---------|
----------------------|------------------------|------------------------|
----------------------|------------------------|------------------------|
----------------------|------------------------|------------------------|


  
---------------------------|------------------1--2--|--L------L--------1-----|
--L---7-----6-----4--------|------------------------|---------------------4--|
------------------------6--|--L---3-----------------|------------------------|
---------------------------|----6-------------------|------------------------|
---------------------------|------------------------|------------------------|
---------------------------|------------------------|------------------------|


 
--------------1------------|---------------------|----------------------|
--L--------------2-2----2--|--L------------L-----|-----------4----6-----|
----------1-1---------3----|---------------------|----------------------|
---------------------------|---------------------|----------------------|
---------------------------|---------------------|----------------------|
---------------------------|---------------------|----------------------|



-----------------------|------------------------|--------------------------|
--7--------L-----6--4--|--L--------L------4--6--|--L---7-----6----4-----4--|
-----------------------|---------------6--------|--------------------------|
-----------------------|------------------------|--------------------------|
-----------------------|------------------------|--------------------------|
-----------------------|------------------------|--------------------------|



--------------------------|-----------------1-----|---------------1------------|
--L--2-----2--1--2--1-----|--------------------4--|--L----L----------2-2----2--|
-----------------------3--|--L--------L-----------|-----------1-1---------3----|
--------------------------|-----------------------|----------------------------|
--------------------------|-----------------------|----------------------------|
--------------------------|-----------------------|----------------------------|


 
-------------------|----------------------|---------------------------|
--L----------------|--L-------------------|---------------------------|
-------------------|----------------------|--1----L---1------------1--|
-------------------|------------------3-4-|--------------4--3--4------|
-------------------|----------------------|---------------------------|
-------------------|----------------------|---------------------------|

 
---------------------|--------------------------|-----------------------------|
---------------------|----------------2---------|------------------2---2--4---|
--L------------L-----|---------3---3-----3---3--|--L--1---1----L--------------|
---------------------|--------------------------|-----------------------------|
---------------------|--------------------------|-----------------------------|
---------------------|--------------------------|-----------------------------|



--1---------------1---|-----------------------|---------------------|
--------------2-------|--4--------L---1---4---|--L--2------------L--|
----------------------|-----------------------|---------------------|
----------------------|-----------------------|---------------------|
----------------------|-----------------------|---------------------|
----------------------|-----------------------|---------------------|







Duration Legend
---------------
W - whole
H - half
Q - quarter
E - 8th
S - 16th
T - 32nd
X - 64th
. - note dotted
|-n-|  - n-tuplets


Tablature Legend
----------------
L - tied note
x - dead note
g - grace note
(n) - ghost note
> - accentuded note
NH - natural harmonic
AH - artificial harmonic
TH - tapped harmonic
SH - semi harmonic
PH - pitch harmonic
h - hammer on
p - pull off
b - bend
br - bendRelease
pb - preBend
pbr - preBendRelease
brb - bendReleaseBend
\n/ - tremolo bar dip
\n - tremolo bar dive
-/n - tremolo bar Release up
/n\ - tremolo bar inverted dip
/n - tremolo bar return
-\n - tremolo bar Release down
S - shift slide
s - legato slide
/ -  slide into from below or out of upwards
\ -  slide into from above or out of downwards
~ - vibrato
W - wide vibrato
tr - trill
TP - tremolo picking
T - tapping
S - slap
P - pop
< - fade in
^ - brush up
v - brush down





Comments


Popular Kelly Family tabs & chords
Alle Kinder Brauchen Freunde Chords
Come Back To Me Chords
Mystic Knights Chords
Never Gonna Break Me Down Chords
Rock N Roll Stole My Soul Chords
Wish I Were A Swallow Chords
Big Mouth On Tv Ukulele
Cant Help Myself Ukulele
Staying Alive Ukulele
Stranger Ukulele


Song lyrics



↑ Back to top | Tablatures and chords are parodies/interpretations of the original songs. You may use it for private study, scholarship, research or language learning purposes only
© 2014 AZChords.com Contact us | Privacy policy | DMCA | Add/correct tabs | Request tabs | Top 50 tabs