» » »

Because It's Love Tabs (ver.1)

Artists:  A B C D E F G H I J K L M N O P Q R S T U V W X Y Z # 

Because It's Love Tabs (ver.1)

Kelly Family
Rating:
0/5 (0 votes)

Hard to play? Try these video lessons and learn fast.
                Because it's love


Notes:
 - The capo is on the first freet
 - Everytime you do a C, you have to do also this accord:
      ||-X-|---|---|---|
      ||-X-|---|---|---|
      ||---|---|---|---|
      ||---|-X-|---|---|
      ||---|---|-X-|---|
      ||---|---|---|---|
 - Everytime you do a F, you have to do also this accord:
      ||-X-|---|-X-|---||
      ||-X-|---|---|---||
      ||-X-|-X-|---|---||
      ||-X-|---|---|---||  <- Don't play this string
      ||-X-|---|-X-|---||
      ||-X-|---|---|---||
 - Each bar of rhy fig 1 and rhy fig 1.2 is repeated as many times as the chords (I 
you should get the rhythm).

Rhy. Fig. 1: (w/ clean guitar and palm muting)
   PM----------------------------------------------------------------------||
||-----|-----|-----|-----|-----|-----|-----|-----|-----|-----|-----|-------||
||-----|-----|-----|-----|-----|-----|-----|-----|-----|-----|-----|-------||
||*----|-----|-----|-----|-----|-----|-----|-----|-----|-----|-----|----*--||
||*----|-----|-----|-----|-----|-----|-----|-----|-----|-----|-----|----*--||
||--3--|-----|--3--|--3--|-----|-----|--3--|-----|--3--|--3--|-----|--3----||
||-----|--1--|-----|-----|--1--|--3--|-----|--1--|-----|-----|--3--|-------||

Rhy. Fig. 1.2: (w/ clean guitar and palm muting)
   PM----------------------||
||-----|-----|-----|-------||
||-----|-----|-----|-------||
||*----|-----|-----|----*--||
||*----|-----|-----|----*--||
||-----|-----|--3--|--3----||
||--1--|--1--|-----|-------||


(w/ rhy fig 1)
C
Everytime I look at your face
F            C
I get this feeling
     C
Everytime I look in your eyes
F         G
It starts healing
     C
Everytime we walk side by side
F                 C
Yes, I get this feeling

C
Because it's love,
       G             C
Yes it's love, oh it's love
       F       G
And we climb a step
      C                F
Every day it's you and I
   F       G
We climb a step
                    C
Every day and every night

(w/ accords)
It's everytime you look at my face
You give me this feeling
Everytime you look in my eyes
My heart starts to tumble
Oh I think of you all the time
It's you I believe in

Because it's love,
Yes it's love, oh it's love
And we climb a step
Every day it's you and I
We climb a step
Every day and every night

SOLO (w/ distortion guitar and accords F G C A- F G C)

||-------------------|---------------|-------------------------|
||-/5--5--5--5/6--6--|--5\3----------|--5--6--5--6--5\3--------|
||*------------------|-------5--5/7--|-------------------5--5--|
||*------------------|---------------|-------------------------|
||-------------------|---------------|-------------------------|
||-------------------|---------------|-------------------------|

                                   Full bent and release
|-------------------|--------|-------------------------||
|-------------------|--5-----|-------------------------||
|--5--4h5--4--------|-----7--|--------7^--5--5-----5--*||
|----------------7--|--------|--5--5------------7-----*||
|-------------------|--------|-------------------------||
|-------------------|--------|-------------------------||

(w/ rhy fig 2 and accords)
And we climb a step
Every day it's you and I
We climb a step
Every day and every night

       F       G
And we climb a step
      C                A-
Every day it's you and I
      F     G
We climb a step
                    C
Every day and every night

(w/ accords and rhy fig 1 bars 7 to 11 and continue w/ rhy fig 1.2)
C
Everytime I look at your face
F          C
I get this feeling
C
Because it's love,
         G          F   F-
yes it's love and it's love.
C


Rhy. Fig. 2: (w/ distortion guitar)
||------|-----|-----|-----|-----|-----|-----|-----|
||------|-----|-----|-----|-----|-----|-----|-----|
||*-----|-----|-----|-----|-----|-----|-----|-----|
||*-----|-----|--5--|-----|-----|-----|--5--|--5--|
||---3--|--5--|--3--|--3--|--3--|--5--|--3--|--3--|
||---1--|--3--|-----|--1--|--1--|--3--|-----|-----|

|-----|-----|--------------|-----|-----|--------||
|-----|-----|--------------|-----|-----|--------||
|-----|-----|--------------|-----|-----|-----*--||
|-----|-----|--5--4--2-----|-----|-----|--5--*--||
|--3--|--5--|--3--2--0--5--|--3--|--5--|--3-----||
|--1--|--3--|-----------3--|--1--|--3--|--------||
            
Hard to play? Try these video lessons and learn fast. | Correct




comments powered by Disqus
↑ Back to top | Tablatures and chords are parodies/interpretations of the original songs. You may use it for private study, scholarship, research or language learning purposes only