» » »

Walk Away Tabs (ver.3)

Artists:  A B C D E F G H I J K L M N O P Q R S T U V W X Y Z # 

Walk Away Tabs (ver.3)

Kelly Clarkson
Rating:
0/5 (0 votes)

Hard to play? Try these video lessons and learn fast.
                -------------------------------------------------------------------------------
                             Walk Away - Kelly Clarkson
-------------------------------------------------------------------------------

Tuning: Standard

She's got two guitarist right? Either way, here you go. The intro is the same
as the verses with another guitar playing the rhythm chords.

Intro (and verse):

Guitar 1
e|--------------------------------------------------------------------------|
B|-----12-----12------11----11------10-----10------11-----11----------------|
G|--------------------------------------------------------------------------|
D|-----------------8-----8------10-----10------10-----10--------------------|
A|--10----10----------------------------------------------------------------|
E|--------------------------------------------------------------------------|

Guitar 2: If ya wanna be cool, strum the chords but the second & fourth time you hit the 
chord, emphasize the notes in parenthesis, otherwise just play the power chords.
e|-(4)---(4)------(1)---(1)----(3)----(3)-----(3)----(3)--------------------|
B|-(4----(4)------(3)---(3)----(5)----(5)-----(5)----(5)--------------------|
G|-(5)---(5)-------3-----3------5------5-------5------5---------------------|
D|--6-----6--------3-----3------5------5-------5------5---------------------|
A|--6-----6--------1-----1------3------3-------3------3---------------------|
E|--3-----3-----------------------------------------------------------------|

Chorus: simple G, F, C chord progression, however, there's a cool little riff that's 
hard to make out, but somebody can hear it, so whoever you are, tab it, also, what's that 
            
Hard to play? Try these video lessons and learn fast. | Correct




comments powered by Disqus
↑ Back to top | Tablatures and chords are parodies/interpretations of the original songs. You may use it for private study, scholarship, research or language learning purposes only