» » »

Moment Like This Tabs (ver.1)

Artists:  A B C D E F G H I J K L M N O P Q R S T U V W X Y Z # 

Moment Like This Tabs (ver.1)

Kelly Clarkson
Rating:
0/5 (0 votes)

Hard to play? Try these video lessons and learn fast.
                Hi, I hope it's right ... It took me some time to catch it :)

Standart tunning - E

intro:
---------------------|
---------------------|
---8----4---------6--|
--8-8--4-4---6---6-6-|
-6----2-----6-6-4----|
-----------4---------|

verse:

--------------------------------------------------------------|
--------------------------------------------------------------|
---8----4---------6---------8----4----3--------9--4-----6--8--|
--8-8--4-4---6---6-6--2x---8-8--4-4--3-3---6---9--4--6--6--8--|
-6----2-----6-6-4---------6----2----1-----6-6--7--2--6--4--6--|
-----------4-----------------------------4-----------4--------|
                                                           a moment ...

chorus:
---------------------------------------------------|
---------------------------------------------------|
-----8-8-6-6-8-8------10-10-9-9---5-6-----3--8-----|
-6-6-8-8-6-6-8-8--2x--10-10-9-9-6-5-6--3--3--8--6--|
-6-6-6-6-4-4-6-6------8--8--7-7-6-3-4--3--1--6--6--|
-4-4----------------------------4------1--------4--|
like this ...

intro 2:
( continue from last chord from chorus )
-----------------------------------------------|
-----------------------------------------------|
---------------------------------5-6-----3--8--|
-6-6-4-4-3-3-2-2------3-3-2-2--6-5-6--3--3--8--|
-6-6-4-4-3-3-2-2--2x--3-3-2-2--6-3-4--3--1--6--|
-4-4-2-2-1-1-0-0------1-1-0-0--4------1--------|
                                            a moment ...

chorus 2:
( only tone up so ... )

------------------------------------------------------------|
------------------------------------------------------------|
-----10-10--8-8-10-10------12-12-11-11----7-8-----5--10-----|
-8-8-10-10--8-8-10-10--2x--12-12-11-11--8-7-8--5--5--10--8--|
-8-8-8--8---6-6-8--8-------10-10-9--9---8-5-6--5--3--8---8--|
-6-6------------------------------------6------3---------6--|

---------------------------------------------------------|
---------------------------------------------------------|
-----10-10--8-8-10-10------12-12-11-11----7-8-----5--10--|
-8-8-10-10--8-8-10-10--2x--12-12-11-11--8-7-8--5--5--10--|
-8-8-8--8---6-6-8--8-------10-10-9--9---8-5-6--5--3--8---|
-6-6------------------------------------6------3---------|

end with:
--------------------------------|
--------------------------------|
---------10----8----10----------|
---8---10--10-8-8-10--10----8---|
--8-8-8------6---8--------8-----|
-6----------------------6-------|
            
Hard to play? Try these video lessons and learn fast. | Correct




comments powered by Disqus
↑ Back to top | Tablatures and chords are parodies/interpretations of the original songs. You may use it for private study, scholarship, research or language learning purposes only