» » »

I Forgive You Tabs (ver.1)

Artists:  A B C D E F G H I J K L M N O P Q R S T U V W X Y Z # 

I Forgive You Tabs (ver.1)

Kelly Clarkson
Rating:
0/5 (0 votes)

Hard to play? Try these video lessons and learn fast.
                Song Tittle: I Forgive You

this song is by kelly clarkson, its called i forgive you. im sure you will enjoy the tab!!


intro:
Guitar:1
   *PM*
e|-------|
G|-------|
D|---7---|    Repeat
A|---7---|
E|---5---|

Verse:1
Guitar:1
   *PM*
e|-------|
G|-------|
D|---7---|    Repeat
A|---7---|
E|---5---|
I forgive you, I forgive me Now when do i start to feel again I forgive you, I forgive 
me Now when do i start to feel again

                              *PM*
e|----------------------------------------------------------------|
B|----------------------------------------------------------------|
G|----7-------------7----------------------------9------7---------|
D|----7-x8---7------7-x8---7------6------4-------9-x4---7-x8-hold-|
A|----5------7-x8---5------7-x4---6-x4---4-x12---7------5---------|
E|-----------5-------------5------4------2------------------------|
'Cause the lights are on But I'm never home But I'll be back with a brand new attitude'.......

Cause I forgive you


Chorus:
Guitar:1

e|------------------------------------|
B|------------------------------------|
G|-----------9-------11-------7-------|
D|---7-------9-x16---11-x16---7-x16---| Repeat Twice
A|---7-x16---7-------9--------5-------|
E|---5--------------------------------|


Guitar:2 /lead Guitar

e|---------5-7-5-9-7-5-7------|
B|-----5--5-5-5-5-5-5-5-------|
G|----------------------------|
D|----------------------------|    Repeat Through the entire chorus
A|----------------------------|
E|----------------------------|
I forgive you We were just a couple of kids Trying to figure out how to live Doing it 
our way No shame, no blame'Cause the damage is done And I forgive you

I forgive you We were busy living the dream Never noticed the glass ceiling falling in 
on us No shame, no blame'Cause the damage is done And I forgive you


Verse:2
Guitar:1

   *PM*
e|-------|
G|-------|
D|---7---|    Repeat
A|---7---|
E|---5---|
I forgive you, I forgive me Now do I start to feel again If I hate you, what does that 
do So I breathe in and I count to 10

                               *PM*
e|----------------------------------------------------------------|
B|----------------------------------------------------------------|
G|----7-------------7----------------------------9------7---------|
D|----7-x8---7------7-x8---7------6------4-------9-x4---7-x8-hold-|
A|----5------7-x8---5------7-x4---6-x4---4-x12---7------5---------|
E|-----------5-------------5------4------2------------------------|
'Cause the lights are on And I'm coming home Yes I am back With a new heart in my hand'

Cause I forgive you


Chorus:
Guitar:1

e|------------------------------------|
B|------------------------------------|
G|-----------9-------11-------7-------|
D|---7-------9-x16---11-x16---7-x16---| Repeat Twice
A|---7-x16---7-------9--------5-------|
E|---5--------------------------------|


Guitar:2 /lead Guitar

e|---------5-7-5-9-7-5-7------|
B|-----5--5-5-5-5-5-5-5-------|
G|----------------------------|
D|----------------------------|    Repeat Through the entire chorus
A|----------------------------|
E|----------------------------|
I forgive you We were just a couple of kids Trying to figure out how to live Doing it 
our way No shame, no blame'Cause the damage is done And I forgive you

I forgive you We were busy living the dream Never noticed the glass ceiling falling in 
on us No shame, no blame'Cause the damage is done And I forgive you


Bridge/solo
Guitar:2   guitar 1 does not play during this part
e|-----------------------------------------------------|
B|-----------------------------------------------------|
G|---77777777/99999999/1111111111111111/1313131313/14--|
D|-----------------------------------------------------|
A|-----------------------------------------------------|
E|-----------------------------------------------------|

e|------------------------------------------------------------------|
B|-----------------------------------------------------------19~----|
G|---77777777/99999999/1111111111111111/14141414/18181818/21~----19~|
D|------------------------------------------------------------------|
A|------------------------------------------------------------------|
E|------------------------------------------------------------------|
I forgive you For every time that I cried Over some stupid thing you did to hurt me 
That's alright, yeah I forgive youI forgive you We were just a couple of kids Trying to 
figure out how to live Doing it our way No shame, no blame'Cause the damage is 
done And I forgive you.


Chorus:
Guitar:1

e|------------------------------------|
B|------------------------------------|
G|-----------9-------11-------7-------|
D|---7-------9-x16---11-x16---7-x16---| Repeat Twice
A|---7-x16---7-------9--------5-------|
E|---5--------------------------------|


Guitar:2 /lead Guitar

e|---------5-7-5-9-7-5-7------|
B|-----5--5-5-5-5-5-5-5-------|
G|----------------------------|
D|----------------------------|    Repeat Through the entire chorus
A|----------------------------|
E|----------------------------|
I forgive you We were just a couple of kids Trying to figure out how to live Doing it 
our way No shame, no blame'Cause the damage is done And I forgive you

I forgive you We were busy living the dream Never noticed the glass ceiling falling in 
on us No shame, no blame'Cause the damage is done And I forgive you



in most part of the song  you have to listen carefully. to get the timing right.



-LEARN IT - PLAY IT - LIKE IT - LOVE IT -
            
Hard to play? Try these video lessons and learn fast. | Correct




comments powered by Disqus
↑ Back to top | Tablatures and chords are parodies/interpretations of the original songs. You may use it for private study, scholarship, research or language learning purposes only