» » »

I Do Not Hook Up Tabs (ver.1)

Artists:  A B C D E F G H I J K L M N O P Q R S T U V W X Y Z # 

I Do Not Hook Up Tabs (ver.1)

Kelly Clarkson
Rating:
0/5 (0 votes)

Hard to play? Try these video lessons and learn fast.
                "I Do Not Hook Up"

INTRO:
e|-----------------|-----------------|-----------------|-----------------|
B|-----------------|-----------------|-----------------|-----------------|
G|-----------------|-----------------|-----------------|-----------4-----|
D|---2---1---2-----|---2---1---2-----|---2---1---2-----|---2---4---------|
A|-----------------|-0---0---0---0-0-|-4---4---4---4-4-|-0---0---0---0-0-|
E|-0---0---0---0-0-|-----------------|-----------------|-----------------|

VERSES:
e|-----------------|-----------------|-----------------|-----------------|
B|-----------------|-----------------|-----------------|-----------------|
G|-----------------|-----------------|-----------------|-----------4-----|
D|---2---1---2-----|---2---1---2-----|---2---1---2-----|---2---4---------|
A|-----------------|-0---0---0---0-0-|-4---4---4---4-4-|-0---0---0---0-0-|
E|-0---0---0---0-0-|-----------------|-----------------|-----------------|

e|-----------------|-----------------|-----------------|-----------------|
B|-----------------|-----------------|-----------------|-----------------|
G|-----------------|-----------------|-----------------|---4-------1-----|
D|---2---1---2-----|---2---1---2-----|---2---1---2-----|-------4---------|
A|-----------------|-0---0---0---0-0-|-4---4---4---4-4-|-0---0---0---0-0-|
E|-0---0---0---0-0-|-----------------|-----------------|-----------------|

e|-----------------|-----------------|-----------------|-----------------|
B|-----------------|-----------------|-----------------|-----------------|
G|-----------------|-----------------|-----------------|---4-------1-----|
D|---2---1---2-----|---2---1---2-----|---2---1---2-----|-------4---------|
A|-----------------|-0---0---0---0-0-|-4---4---4---4-4-|-0---0---0---0-0-|
E|-0---0---0---0-0-|-----------------|-----------------|-----------------|

e|-----------------|-----------------|-----------------|-----------------|
B|-----------------|-----------------|-----------------|-----------------|
G|-----------------|-----------------|-----------------|---4-------1-----|
D|---2---1---2-----|---2---1---2-----|---2---1---2-----|-------4---------|
A|-----------------|-0---0---0---0-0-|-4---4---4---4-4-|-0---0---0---0-0-|
E|-0---0---0---0-0-|-----------------|-----------------|-----------------|

Then strum these chords:
A
||||||
------
||ooo|
------


Edim/Bb
|o||||
------
||o|o|
------
|||o||
------


CHORUS:
| E / / / | E G#m A / | E / / / | E / A / | 
| C#m / / / | F#m / / / | A / / / | B / / / |
| E / / / | E G#m A / | E / / / | E / A / | 
| C#m / / / | F#m / / / | A / / / | B / / / |

e|-----------------|-----------------|-----------------|-----------------|
B|-----------------|-----------------|-----------------|-----------------|
G|-----------------|-----------------|-----------------|---4-------1-----|
D|---2---1---2-----|---2---1---2-----|---2---1---2-----|-------4---------|
A|-----------------|-0---0---0---0-0-|-4---4---4---4-4-|-0---0---0---0-0-|
E|-0---0---0---0-0-|-----------------|-----------------|-----------------|


BRIDGE:
| C#m / / / | E / / / | A / / / | F# / / / |

| C#m / / / | E / / / | A / / / | Edim/Bb / / / |


LAST CHORUS:

e|-----------------|
B|-----------------|
G|-89999999999999--| x16
D|-----------------|
A|-67777777777777--|
E|-----------------|

| C#m / / / | F#m / / / | A / / / | B / / / |
| E / / / | E G#m A / | E / / / | E / A / | 
| C#m / / / | F#m / / / | A / / / | B / / / |
| C#m / / / | F#m / / / | A / / / | B / / / | E    |


Enjoy,
Rim
            
Hard to play? Try these video lessons and learn fast. | Correct




comments powered by Disqus
↑ Back to top | Tablatures and chords are parodies/interpretations of the original songs. You may use it for private study, scholarship, research or language learning purposes only