» » »

Kelly Clarkson, Hole Tabs (ver.1)

Artists:  A B C D E F G H I J K L M N O P Q R S T U V W X Y Z # 

Hole Tabs (ver.1)

Kelly Clarkson Tabs
 Rating:
4/5 (4 votes)
Hole lessons Tabs too difficult? Try these video lessons and learn fast
                Drop D tuning

Intro:

e|---------------------------------------------------------------------------|
B|--10-10-13-13---------10-10--10-10-13-13---------10-10---------------------|
G|---------------12-12----------------------12-12----------------------------|
D|---------------------------------------------------------------------------|
A|---------------------------------------------------------------------------|
D|---------------------------------------------------------------------------|

Verse:

e|---------------------------------------------------------------------------|
B|---------------------------------------------------------------------------|
G|---5-7----7--10---------5-7---------5--5-7----7-10-------5-7---------------|
D|-------7---------------------7-8-8----------7----------------7-8-8\0-------|
A|-------------------3-5------------------------------3-5--------------------|
D|---------------------------------------------------------------------------|


Pre-chorus:

Chords used

    E8     C8      A8    D8
e|-------------------------------------|
B|-------------------------------------|
G|---9------5------2------7------------|
D|---x------x------x------x------------|
A|---7------3------0------5------------|
D|-------------------------------------|


here's the lead with the chords

   E8 C8  A8     C8  E8  C8  A8    C8  D8 A8      D8 A8    D8  E8       
e|-12----------------12----------------10---------10-------10--12-12-12-12-12-12...|
B|----13--10--10-13------13--10-10-13-----10--13-----10-13-------------------------|
G|---------------------------------------------------------------------------------|
D|---------------------------------------------------------------------------------|
A|---------------------------------------------------------------------------------|
D|---------------------------------------------------------------------------------|



Chorus:

e|---------------------------------------------------------------------------|
B|---------------------------------------------------------------------------|
G|--------5-7----7--10-10------5-7---7--10-10-----5-7---7-10-----------------|
D|--0---------7-----10-10---0------7----10-10--0------7---10--3--5-5--3--5-3-|
A|--0---------------8--8----0-----------8--8---0----------8---3--5-5--3--5-3-|
D|--0-----------------------0------------------0--------------3--5-5--3--5-3-|



 play this right before 2nd verse
e|-----------------------------------------------------|
B|-----------------------------------------------------|
G|-------5-7---7/10--5-7----5-7------------------------|
D|--0--------7------------------7-8-8-0----------------|
A|--0---------------------5----------------------------|
D|--0--------------------------------------------------|




Breakdown:

e|---------------------------------------------|
B|---------------------------------------------|
G|---------------------------------------------|
D|--3--5-5--3--5-5--3--5-5--3--5-5--3----------|
A|--3--5-5--3--5-5--3--5-5--3--5-5--3----------|
D|--3--5-5--3--5-5--3--5-5--3--5-5--3----------|

e|-------------------------------------------------------------------------------|
B|-------------------------------------------------------------------------------|
G|-------------------------------------------------------------------------------|
D|---10--8-8--10-10-8-8--3--5--5--3--5---10-8-8--10-10--8-8---12----12----12-----|
A|---10--8-8--10-10-8-8--3--5--5--3--5---10-8-8--10-10--8-8---12-13-12-13-12-13--|
D|---10--8-8--10-10-8-8--3--5--5--3--5---10-8-8--10-10--8-8---12-13-12-13-12-13--|

e|------------------------------------------------------------------|
B|------------------------------------------------------------------|
G|------------------------------------------------------------------|
D|---10--8-8--10-10-8-8--3--5--5--3--5---10-8-8--10-10--8-8---3-----|
A|---10--8-8--10-10-8-8--3--5--5--3--5---10-8-8--10-10--8-8---3-----|
D|---10--8-8--10-10-8-8--3--5--5--3--5---10-8-8--10-10--8-8---3(x10)|
            
Submit corrections

comments powered by Disqus
↑ Back to top | Kelly Clarkson Tabs for Hole. Lyrics for acoustic guitar and electric guitar. Tablatures and chords are parodies/interpretations of the original songs. You may use it for private study, scholarship, research or language learning purposes only