» » »

Kelly Clarkson, Gone Tabs (ver.1)

Artists:  A B C D E F G H I J K L M N O P Q R S T U V W X Y Z # 

Gone Tabs (ver.1)

Kelly Clarkson Tabs
Rating:
0/5 (0 votes)
Gone lessons Tabs too difficult? Try these video lessons and learn fast
                
Tuning: Standard (eADGBE)
	everything is standard, i'm just lazy to put all EBGDAe's (lol)


Intro:

|-1-1-11-11-1-11-1-|
|-3-3-33-33-3-33-3-|
|-2-2-22-22-2-22-2-|
|-0-0-00-00-0-00-0-|
|------------------|
|------------------|


Verse: (repeat 2x)

|-1-1-11-11-1-11-1-|-3-3-33-33-3-33-3-|-0-0-00-00-0-00-0-|-1-1-11-11-1-11-1-|
|-3-3-33-33-3-33-3-|-3-3-33-33-3-33-3-|-1-1-11-11-1-11-1-|-3-3-33-33-3-33-3-|
|-2-2-22-22-2-22-2-|-3-3-33-33-3-33-3-|-0-0-00-00-0-00-0-|-2-2-22-22-2-22-2-|
|-0-0-00-00-0-00-0-|-5-5-55-55-5-55-5-|-2-2-22-22-2-22-2-|-0-0-00-00-0-00-0-|
|------------------|-5-5-55-55-5-55-5-|-3-3-33-33-3-33-3-|------------------|
|------------------|-3-3-33-33-3-33-3-|------------------|------------------|
 "What you see's not what you get..."
 "Your eyes, they sparkle..."


Chorus:

|-1-1-1-1-1-1-1-1-|-0-0-0-0-0-0-0-0-|-0-0-0-0-0-0-0-0-|-0-0-0-0-0-0-0-0-|
|-1-1-1-1-1-1-1-1-|-1-1-1-1-1-1-1-1-|-1-1-1-1-1-1-1-1-|-1-1-1-1-1-1-1-1-|
|-2-2-2-2-2-2-2-2-|-2-2-2-2-2-2-2-2-|-0-0-0-0-0-0-0-0-|-0-0-0-0-0-0-0-0-|
|-3-3-3-3-3-3-3-3-|-3-3-3-3-3-3-3-3-|-2-2-2-2-2-2-2-2-|-2-2-2-2-2-2-2-2-|
|-3-3-3-3-3-3-3-3-|-0-0-0-0-0-0-0-0-|-3-3-3-3-3-3-3-3-|-3-3-3-3-3-3-3-3-|
|-1-1-1-1-1-1-1-1-|-----------------|-----------------|-----------------|
 "I'm gone... to find someone to live for in this world..."

|-3-3-3-3-3-3-3-3-|-3-3-3-3-3-3-3-3-|-1-1-1-1-1-1-1-1-|-0-0-0-0-0-0-0-0-|
|-3-3-3-3-3-3-3-3-|-3-3-3-3-3-3-3-3-|-3-3-3-3-3-3-3-3-|-1-1-1-1-1-1-1-1-|
|-3-3-3-3-3-3-3-3-|-3-3-3-3-3-3-3-3-|-2-2-2-2-2-2-2-2-|-0-0-0-0-0-0-0-0-|
|-5-5-5-5-5-5-5-5-|-5-5-5-5-5-5-5-5-|-0-0-0-0-0-0-0-0-|-2-2-2-2-2-2-2-2-|
|-5-5-5-5-5-5-5-5-|-5-5-5-5-5-5-5-5-|-----------------|-3-3-3-3-3-3-3-3-|
|-3-3-3-3-3-3-3-3-|-3-3-3-3-3-3-3-3-|-----------------|-----------------|
 "There's no line..."		"Just a bridge that..."
       
|-1-1-1-1-1-1-1-1-|-0-0-0-0-0-0-0-0-|-0-0-0-0-0-0-0-0-|-----------------|
|-1-1-1-1-1-1-1-1-|-1-1-1-1-1-1-1-1-|-1-1-1-1-1-1-1-1-|-5-5-5-5-5-5-5-5-|
|-2-2-2-2-2-2-2-2-|-2-2-2-2-2-2-2-2-|-0-0-0-0-0-0-0-0-|-6-6-6-6-6-6-6-6-|
|-3-3-3-3-3-3-3-3-|-3-3-3-3-3-3-3-3-|-2-2-2-2-2-2-2-2-|-6-6-6-6-6-6-6-6-|
|-3-3-3-3-3-3-3-3-|-0-0-0-0-0-0-0-0-|-3-3-3-3-3-3-3-3-|-4-4-4-4-4-4-4-4-|
|-1-1-1-1-1-1-1-1-|-----------------|-----------------|-----------------|
 "You were wrong...."		"If you think you can walk..."             

|-3-3-3-3-3-3-3-3-|-1-1-1-1-1-1-1-1-|-0-0-0-0-0-0-0-0-|-0-0-0-0-0-0-0-0-|
|-3-3-3-3-3-3-3-3-|-1-1-1-1-1-1-1-1-|-1-1-1-1-1-1-1-1-|-1-1-1-1-1-1-1-1-|
|-3-3-3-3-3-3-3-3-|-2-2-2-2-2-2-2-2-|-0-0-0-0-0-0-0-0-|-0-0-0-0-0-0-0-0-|
|-5-5-5-5-5-5-5-5-|-3-3-3-3-3-3-3-3-|-2-2-2-2-2-2-2-2-|-2-2-2-2-2-2-2-2-|
|-5-5-5-5-5-5-5-5-|-3-3-3-3-3-3-3-3-|-3-3-3-3-3-3-3-3-|-3-3-3-3-3-3-3-3-|
|-3-3-3-3-3-3-3-3-|-1-1-1-1-1-1-1-1-|-----------------|-----------------|
 "That is just so you, coming back when I'm finally moved... on..."
 "I'm already gone..."
     
[Repeat Intro]
[Repeat Verse 2x]
[Repeat Chorus]


Bridge: (repeat 2x)

|-1-1-11-1-|-0-0-00-0-|----------|----------|
|-3-3-33-3-|-1-1-11-1-|----------|----------|
|-2-2-22-2-|-2-2-22-2-|-3-3-33-3-|-5-5-55-5-|
|-0-0-00-0-|-2-2-22-2-|-3-3-33-3-|-5-5-55-5-|
|----------|-0-0-00-0-|-1-1-11-1-|-3-3-33-3-|
|----------|----------|----------|----------|
 "There is nothing you can say..."
 "It doesn't matter what you do..."

then,
"the fast stuff":

|-----1-------1---|-----------------|[4x]
|-------3---------|-----3-------2---|(on the 4th play, play only the first bar)
|---2-------2---2-|-------3-------2-|
|-0-------0-------|---3-------2-----|
|-----------------|-1-------0-------|
|-----------------|-----------------|
 "What you see's not what you get..."
 "What you see's not what you get..."

[Repeat Chorus]

then the last part of the chorus (post-chorus ?)

|-1-1-11-1-|-3-3-33-3-|-0-0-00-0-|-1-1-11-1-|
|-3-3-33-3-|-3-3-33-3-|-1-1-11-1-|-3-3-33-3-|
|-2-2-22-2-|-3-3-33-3-|-0-0-00-0-|-2-2-22-2-|
|-0-0-00-0-|-5-5-55-5-|-2-2-22-2-|-0-0-00-0-|
|----------|-5-5-55-5-|-3-3-33-3-|----------|
|----------|-3-3-33-3-|----------|----------|
 "I'm already gone... I'm already gone...
 "Oh, I'm already gone, gone, gone...

|-1-1-11-1-|-3-3-33-3-|-0-0-00-0-|-1-|
|-3-3-33-3-|-3-3-33-3-|-1-1-11-1-|-3-|
|-2-2-22-2-|-3-3-33-3-|-0-0-00-0-|-2-|
|-0-0-00-0-|-5-5-55-5-|-2-2-22-2-|-0-|
|----------|-5-5-55-5-|-3-3-33-3-|---|
|----------|-3-3-33-3-|----------|---|
 "Already gone... I'm gone."

FIN
Please rate!!!!
Thank You..
            
Submit corrections

comments powered by Disqus
↑ Back to top | Kelly Clarkson Tabs for Gone. Lyrics for acoustic guitar and electric guitar. Tablatures and chords are parodies/interpretations of the original songs. You may use it for private study, scholarship, research or language learning purposes only