» » »

Kelly Clarkson, Einstein Tabs (ver.1)

Artists:  A B C D E F G H I J K L M N O P Q R S T U V W X Y Z # 

Einstein Tabs (ver.1)

Kelly Clarkson Tabs
Rating:
0/5 (0 votes)
Einstein lessons Tabs too difficult? Try these video lessons and learn fast
                -------------------------------------------------------------------------------
-------------------------------------------------------------------------------

Tuning: Standard

Intro/Verse: Distortion (Repeat the Eb throughout the intro every 4 bars.

e|---x-x-x-x-x-x--------------------------------------------------------|
B|---x-x-x-x-x-x--------------------------------------------------------|
G|---x-x-x-x-x-x------6/8--8\----------8----------8----------8----------|
D|---x-x-x-x-x-x------6/8--8\----------8----------8----------8----------|
A|---x-x-x-x-x-x------4/6--6\----------6----------6----------6----------|
E|---x-x-x-x-x-x--------------------------------------------------------|

Bass Line Throughout Song:

e|----------------------------------------------------|
B|----------------------------------------------------|
G|----------------------------------------------------|
D|----------------------------------------------------|
A|--6-6-6-2-2-2-2-2-4-4-4-----------------------------|
E|------------------------4-4-4-4-4-------------------|

Chorus: Distortion

e|-------------------------------------------------------------|
B|-------------------------------------------------------------|
G|--8-8-8-4-4-4-4-4-6-6-6--------------------------------------|
D|--8-8-8-4-4-4-4-4-6-6-6-6-6-6-6-6----------------------------|
A|--6-6-6-2-2-2-2-2-4-4-4-6-6-6-6-6----------------------------|
E|------------------------4-4-4-4-4----------------------------|

Bridge: Distortion

e|-----------------------------------------|
B|-----------------------------------------|
G|--8-----/8----6~\------------------------|X4
D|--8---------8----------------------------|
A|--6--------------------------------------|
E|-----------------------------------------|

Chorus: (Quiet)(This actually plays throughout every chorus but isn't 
really heard until the final one) Clean

e|-----------------------------------------------------|
B|-------7--------7-------6--------4-------------------|
G|----8-----------------6------------------------------|X4
D|-------------9----------------6----------------------|
A|--6-----------------4--------------------------------|
E|----------7----------------4-------------------------|

Repeat Loud Chorus

Outro:

The guitar is playing something really boring (Just Eb and Bb double note
over and over) so I recommend playing the chorus again, just with clean 
tone.



If you want to solo, play in the Eb Minor Pentatonic.

************************************

| /   slide up
| \   slide down
| h   hammer-on
| p   pull-off
| ~   vibrato
| +   harmonic
| x   Mute note
| b   Bend
| pb  Pre-bend
| br  Bend release
| pbr Pre-bend release
| brb Bend release bend

************************************
            
Submit corrections

comments powered by Disqus
↑ Back to top | Kelly Clarkson Tabs for Einstein. Lyrics for acoustic guitar and electric guitar. Tablatures and chords are parodies/interpretations of the original songs. You may use it for private study, scholarship, research or language learning purposes only