» » »

Kelly Clarkson, Don't Let Me Stop You Tabs (ver.2)

Artists:  A B C D E F G H I J K L M N O P Q R S T U V W X Y Z # 

Don't Let Me Stop You Tabs (ver.2)

Kelly Clarkson Tabs
 Rating:
4/5 (4 votes)
Don't Let Me Stop You lessons Tabs too difficult? Try these video lessons and learn fast
                "(1)
-- Kelly Clarkson – Don't let me stop you --


standard tuning EADGBE

Intro  D A E D x2

solo bit during intro:

E||----------------------------------17-16-14------------|
B||--17/19-19-19-19--17/19-19-19-19-----------19---------|
G||------------------------------------------------------| 
D||------------------------------------------------------|
A||------------------------------------------------------|
E||------------------------------------------------------|

E||----------------------------------17-16-14-19---------|
B||--17/19-19-19-19--17/19-19-19-19----------------------|
G||------------------------------------------------------| 
D||------------------------------------------------------|
A||------------------------------------------------------|
E||------------------------------------------------------|


Verse:

D                 A
  I used to be a little bit shy 
E                  D
 I kept my deepest feelings inside 
D                  A          F#m         E
 Speaking up to you about my emotions has always been hard 
D          A
 But this just can’t wait 
E                D
 Tonight I feel a little bit brave 
D             A                 F#m           E
 So I won’t let one more day pass without me explaining what we are 


Pre chorus 1:

Bm                      F#m
This is gonna sound kinda silly 
                       A
But I couldn’t help but notice 
                 E
The last time you kissed me 
                        Bm
You kept both eyes open               
                                F#m
Baby, can you tell me what does that mean? 
                               A
If you’re looking all over your shoulder 
                           E
Then you don’t need to be with me 

And I don’t need to hold on 


Chorus: 

D                   A
Don’t let me let me stop you 
      E                  D
F#m                                    A
You don’t wanna stay with just me it’s cool 
E
Take no chance getting over you 
  D                       A
No no don’t let me let me stop you 
E                          D
If you wanna leave baby you can leave 
F#m                      A
Just don’t pretend that you’re into me 
E
If it ain’t true no, don’t let me stop you 


Verse 2 (same chords as verse 1)
A lot of things I can take 
Gotta a high threshold for pain 
But let’s get one thing straight – I’m not down to share you with anyone 
If that’s not what you’re looking for 
Nice knowing you, but there’s the door 
Cause I know that I can find someone to give me what I want 


Pre chorus 2:

Bm                      F#m
This is gonna sound kinda silly 
                           A
If you’re looking over your shoulder 
                           E
Then you don’t need to be with me 

And I don’t need to hold on 


Chorus


Bridge:

D        A      F#m             E
Even if I end up broken hearted 
        D
I won’t lie 
                    E
I don’t wanna hear goodbye 

But either way I’ll be alright 


Chorus x2


solo bit during last chorus (around 2:44):

E||--17-16-----17-16-----17-16-14--------------17-16----17-16----19--|
B||--------17--------17-----------17/19-17-----------17-------17-----|
G||------------------------------------------------------------------| x2
D||------------------------------------------------------------------|
A||------------------------------------------------------------------|
E||------------------------------------------------------------------|

End with  D A E D
"            
Submit corrections

comments powered by Disqus
↑ Back to top | Kelly Clarkson Tabs for Don't Let Me Stop You. Lyrics for acoustic guitar and electric guitar. Tablatures and chords are parodies/interpretations of the original songs. You may use it for private study, scholarship, research or language learning purposes only