>
 >
Don't Let Me Stop You

Don't Let Me Stop You Guitar Tabs

Kelly Clarkson - Don't Let Me Stop You chords, tabs, tablatures, lyrics

Guitar lessons | Add/correct | Request | Top 50 tabs Artists:  A B C D E F G H I J K L M N O P Q R S T U V W X Y Z 0-9

Don't Let Me Stop You Guitar Tabs – Kelly Clarkson

CD, Sheet music, Poster

Do you like Don't Let Me Stop You? Share with your friends now
ChordsTabs
Kelly Clarkson

Tuning: Drop D

Key: A


Intro:

Guitar 1:
e|-------------------|
B|-------------------|
G|-------------------|
D|-0-0--7-7--2-2-2-0-| x2
A|-0-0--7-7--2-2-2-0-|
D|-0-0--7-7--2-2-2-0-|


Guitar 2:
e|-9--9-------------9--9--------9-12-|
B|-------10-9-------------10-12------|
G|------------9-11-------------------|
D|-----------------------------------|
A|-----------------------------------|
D|-----------------------------------|


Verse 1: Palm mute
e|------------------------------------|
B|------------------------------------|
G|------------------------------------|
D|-0-0-0-0--7-7-7-7--2-2-2-2--0-0-0-0-|
A|-0-0-0-0--7-7-7-7--2-2-2-2--0-0-0-0-|
D|-0-0-0-0--7-7-7-7--2-2-2-2--0-0-0-0-|

e|------------------------------------|
B|------------------------------------|
G|------------------------------------|
D|-0-0-0-0--7-7-7-7--4-4-4-4--2-2-2-2-|
A|-0-0-0-0--7-7-7-7--4-4-4-4--2-2-2-2-|
D|-0-0-0-0--7-7-7-7--4-4-4-4--2-2-2-2-|

e|------------------------------------|
B|------------------------------------|
G|------------------------------------|
D|-0-0-0-0--7-7-7-7--2-2-2-2--0-0-0-0-|
A|-0-0-0-0--7-7-7-7--2-2-2-2--0-0-0-0-|
D|-0-0-0-0--7-7-7-7--2-2-2-2--0-0-0-0-|

e|------------------------------------|
B|------------------------------------|
G|------------------------------------|
D|-0-0-0-0--7-7-7-7--4-4-4-4--2-2-2-2-|
A|-0-0-0-0--7-7-7-7--4-4-4-4--2-2-2-2-|
D|-0-0-0-0--7-7-7-7--4-4-4-4--2-2-2-2-|


Guitar 2:
e|----7-9-----7-9--12-9--12-9---12--17-|
B|-10------10--------------------------|
G|-------------------------------------|
D|-------------------------------------|
A|-------------------------------------|
D|-------------------------------------|


Refrain 1:
e|------------------------|
B|------------------------|
G|------------------------|
D|-0--9--4--6--0--9--4--2-|
A|-0--9--4--7--0--9--4--2-|
D|-0--9--4--6--0--9--4--2-|

Guitar 2:
e|---4-5-4-------4-5-4-----|
B|-5-------5---5-------5---|
G|-----------6-----------6-|
D|-------------------------|
A|-------------------------|
D|-------------------------|


Chorus:
e|------------------------------------|
B|------------------------------------|
G|------------------------------------|
D|-0-0-0-0--7-7-7-7--2-2-2-2--0-0-0-0-|
A|-0-0-0-0--7-7-7-7--2-2-2-2--0-0-0-0-|
D|-0-0-0-0--7-7-7-7--2-2-2-2--0-0-0-0-|

e|------------------------------------|
B|------------------------------------|
G|------------------------------------|
D|-4-4-4-4--7-7-7-7--2-2-2-2--2-2-2-2-|
A|-4-4-4-4--7-7-7-7--2-2-2-2--2-2-2-2-|
D|-4-4-4-4--7-7-7-7--2-2-2-2--2-2-2-2-|

e|------------------------------------|
B|------------------------------------|
G|------------------------------------|
D|-0-0-0-0--7-7-7-7--2-2-2-2--0-0-0-0-|
A|-0-0-0-0--7-7-7-7--2-2-2-2--0-0-0-0-|
D|-0-0-0-0--7-7-7-7--2-2-2-2--0-0-0-0-|

e|------------------------------------|
B|------------------------------------|
G|------------------------------------|
D|-4-4-4-4--7-7-7-7--2-2-2-2--2-2-2-2-|
A|-4-4-4-4--7-7-7-7--2-2-2-2--2-2-2-2-|
D|-4-4-4-4--7-7-7-7--2-2-2-2--2-2-2-2-|


Verse 2: Palm mute
e|------------------------------------|
B|------------------------------------|
G|------------------------------------|
D|-0-0-0-0--7-7-7-7--2-2-2-2--0-0-0-0-|
A|-0-0-0-0--7-7-7-7--2-2-2-2--0-0-0-0-|
D|-0-0-0-0--7-7-7-7--2-2-2-2--0-0-0-0-|

e|------------------------------------|
B|------------------------------------|
G|------------------------------------|
D|-0-0-0-0--7-7-7-7--4-4-4-4--2-2-2-2-|
A|-0-0-0-0--7-7-7-7--4-4-4-4--2-2-2-2-|
D|-0-0-0-0--7-7-7-7--4-4-4-4--2-2-2-2-|

e|------------------------------------|
B|------------------------------------|
G|------------------------------------|
D|-0-0-0-0--7-7-7-7--2-2-2-2--0-0-0-0-|
A|-0-0-0-0--7-7-7-7--2-2-2-2--0-0-0-0-|
D|-0-0-0-0--7-7-7-7--2-2-2-2--0-0-0-0-|

e|------------------------------------|
B|------------------------------------|
G|------------------------------------|
D|-0-0-0-0--7-7-7-7--4-4-4-4--2-2-2-2-|
A|-0-0-0-0--7-7-7-7--4-4-4-4--2-2-2-2-|
D|-0-0-0-0--7-7-7-7--4-4-4-4--2-2-2-2-|


Guitar 2:
e|----7-9-----7-9--12-9--12-9---12--17-|
B|-10------10--------------------------|
G|-------------------------------------|
D|-------------------------------------|
A|-------------------------------------|
D|-------------------------------------|


Refrain 2:
e|------------|
B|------------|
G|------------|
D|-0--9--4--6-|
A|-0--9--4--7-|
D|-0--9--4--6-|

Guitar 2:
e|---4-5-4-------4-5-4-----|
B|-5-------5---5-------5---|
G|-----------6-----------6-|
D|-------------------------|
A|-------------------------|
D|-------------------------|


(Repeat Chorus)


Bridge:
e|---------------------------|
B|---------------------------|
G|---------------------------|
D|-0-0--7-7--4-4-4-4-2--0--2-|
A|-0-0--7-7--4-4-4-4-2--0--2-|
D|-0-0--7-7--4-4-4-4-2--0--2-|


(Repeat Chorus twice)


Outro:

Guitar 1:
e|-------------------|
B|-------------------|
G|-------------------|
D|-0-0--7-7--2-2-2-0-| x2
A|-0-0--7-7--2-2-2-0-|
D|-0-0--7-7--2-2-2-0-|


Guitar 2:
e|-------------------------------|
B|-------------------------------|
G|-9---9---9---9---9---9---9---9-|
D|---7---7---7---7---7---7---7---|
A|-------------------------------|
D|-------------------------------|

__________________________________________________

Lyrics


Chords used: Drop D only
D -    000xxx
A -    777xxx
E -    222xxx
F#m -  444xxx
Bm -   999xxx
E/G# - 676xxx

Chords used: for standard tuning
D -    xx0232
A -    x02220
E -    022100
F#m -  244222
Bm -   x24432
E/G# - 476xxx


Intro: D--A--E-D x2


Verse 1:
D                A
  I used to be a little bit shy
E                   D
  I kept my deepest feelings inside
D                A
  Speaking up to you about
   F#m          E
my emotions has always been hard
D          A
  But this just canít wait
E                  D
  Tonight I feel a little bit brave
D                A            F#m
  So I wonít let one more day pass
             E
without me explaining what we are


Refrain:
D                           Bm
  This is gonna sound kinda silly
                        F#m
But I couldnít help but notice
                  E
The last time you kissed me
                   D
You kept both eyes open
Baby can you tell me
          Bm
what does that mean?
If youíre looking all
          F#m
over your shoulder
Then you donít need
      E
to be with me
And I donít need to hold on


Chorus:
D                    A
Donít let me let me stop you
     E                    D
                 F#m                   A
You donít wanna stay with just me itís cool
        E
Take no chance getting over you
      D                    A
No no donít let me let me stop you
             E                  D
If you wanna leave baby you can leave
              F#m                   A
Just donít pretend that youíre into me
            E
If it ainít true no donít let me stop you


Verse 2:
D                 A
  A lot of things I can take
E                            D
  Gotta a high threshold for pain
D               A
  But letís get one thing straight
F#m             E                 D
Iím not down to share you with anyone
                          A
If thatís not what youíre looking for
E                       D
  Nice knowing you, but thereís the
    D                        A
door Cause I know that I can find
    F#m    E
someone to give me what I want


Refrain 2:
D                           Bm
  This is gonna sound kinda silly
                            F#m
If youíre looking over your shoulder
                          E/G#
Then you donít need to be with me

And I donít need to hold on


(Repeat Chorus)


Bridge:
D      A
  Even if I end up
F#m    E
broken hearted
        D(hold)
I wonít lie
                       E(hold)
I donít wanna hear goodbye
But either way Iíll be alright


(Repeat Chorus twice)


Outro: D--A--E-D





Comments


Popular Kelly Clarkson tabs & chords
Don't 1 Chords
Don't Waste Your Time Chords
How I Feel 1 Chords
Never Again 1 Chords
Save You 2 Chords
The Sun Will Rise Chords
Thankful Intro Tabs
Can I Have A Kiss Ukulele
Moment Like This Ukulele
Wide Awake Ukulele


Song lyrics



↑ Back to top | Tablatures and chords are parodies/interpretations of the original songs. You may use it for private study, scholarship, research or language learning purposes only
© 2014 AZChords.com Contact us | Privacy policy | DMCA | Add/correct tabs | Request tabs | Top 50 tabs