» » »

Kelly Clarkson, Can We Go Back? Tabs (ver.1)

Artists:  A B C D E F G H I J K L M N O P Q R S T U V W X Y Z # 

Can We Go Back? Tabs (ver.1)

Kelly Clarkson Tabs
 Rating:
4/5 (4 votes)
Can We Go Back? lessons Tabs too difficult? Try these video lessons and learn fast
1
                -- Kelly Clarkson – Can we go back --

standard tuning EADGBE


Intro: 
E||---------------------------------|  
B||---------------------------------|
G||--------55-5-5-----------55-5-5--|
D||-7-7----55-5-5----3-3----55-5-5--|  x2
A||-7-7----33-3-3----3-3----33-3-3--|  
E||-5-5--------------1-1------------|  


Verse:
E||---------------------------------|  
B||---------------------------------|
G||--------55-5-5-----------55-5-5--|
D||-7-7----55-5-5----3-3----55-5-5--|  x2
A||-7-7----33-3-3----3-3----33-3-3--|  
E||-5-5--------------1-1------------|  


Pre Chorus:
E||----------------------|  
B||----------------------|
G||-----------------7----|
D||-3-3-3-3-3-3-3-3-7----|  
A||-3-3-3-3-3-3-3-3-5----|  
E||-1-1-1-1-1-1-1-1------|  


Chorus: 
E||----------------------|  |-------------------------|
B||----------------------|  |-------------------------|
G||------5555-7777-------|x2|------5555-7777----5--7--|
D||-7777-5555-7777-3333--|  |-7777-5555-7777-3--5--7--|
A||-7777-3333-5555-3333--|  |-7777-3333-5555-3--3--5--|
E||-5555-----------1111--|  |-5555-----------1--------|


before verse 2
E||---------------|  
B||---------------|  
G||------7-8-9----|
D||-7-7-----------|  
A||-7-7-----------|  
E||-5-5-----------|

Verse 2(same as verse 1)

pre chorus

Chorus

Bridge:
E||------------------------------------------------------------|
B||------------------------------------------------------------|
G||-------------------------------5555-7777---------------7----| 
D||-7----3----7----3----7777-9999-5555-7777-33333333-5555-7----|
A||-7----3----7----3----7777-9999-3333-5555-33333333-5555-5----|
E||-5----1----5----1----5555-7777-----------11111111-3333------|

solo during bridge
E||---------------------17---19---20---10---13-------15--------|
B||------------------------------------------------------------|
G||------------------------------------------------------------| 
D||------------------------------------------------------------|
A||------------------------------------------------------------|
E||------------------------------------------------------------|


last chorus
E||----------------------|  |---------------------|  |---|  
B||----------------------|  |---------------------|  |---| 
G||------5555-7777-------|x2|------5555-7777---5--|x3|-7-|  
D||-7777-5555-7777-3333--|  |-7777-5555-7777-3—5--|  |-7-|  
A||-7777-3333-5555-3333--|  |-7777-3333-5555-3—3--|  |-5-|  
E||-5555-----------1111--|  |-5555-----------1----|  |---|  
            
Submit corrections

comments powered by Disqus
↑ Back to top | Kelly Clarkson Tabs for Can We Go Back?. Lyrics for acoustic guitar and electric guitar. 1 Tablatures and chords are parodies/interpretations of the original songs. You may use it for private study, scholarship, research or language learning purposes only