» » »

Kelly Clarkson, Behind These Hazel Eyes Tabs (ver.3)

Artists:  A B C D E F G H I J K L M N O P Q R S T U V W X Y Z # 

Behind These Hazel Eyes Tabs (ver.3)

Kelly Clarkson Tabs
 Rating:
4/5 (7 votes)
Behind These Hazel Eyes lessons Tabs too difficult? Try these video lessons and learn fast
1
                Behind These Hazel Eyes
By
Kelly Clarkson


You Don't Need Two Guitars, Its just that I made this Tab for my BTEC Coursework 
and we used two guitars.

Lead Guitar
Standard Tuning
Capo 2nd Fret (Capo Is Vital)

Backing Guitar
Standard Tuning

Key

~ = Let the note ring
Pm = Palm Mute
X = Mute



Intro
Lead Guitar

E|---------------------------|
B|---------------------------|
G|---------555---------------|
D|--2-5-2--555---2-5-2--555--|
A|--2-5-2--333---2-5-2--555--|
E|--0-3-0--------0-3-0--333--|

E|----------------------|
B|----------------------|
G|---------555----------|
D|--2-5-2--555--2-5-2~--|
A|--2-5-2--333--2-5-2~--|
E|--0-3-0-------0-3-0~--|


Backing Guitar

E|--------------------------|
B|--------------------------|
G|---------777--------------|
D|--4-7-4--777--4-7-4--777--|
A|--4-7-4--555--4-7-4--777--|
E|--2-5-2-------2-5-2--555--|

E|----------------------|
B|----------------------|
G|---------777----------|
D|--4-7-4--777--4-7-4~--|
A|--4-7-4--555--4-7-4~--|
E|--2-5-2-------2-5-2~--|




Verse
Lead Guitar

E|----------------------------------------|
B|----------------------------------------|
G|------0-----------0-------0-------0---0-|
D|----0---0-------0---0---0---0----4---5--|           x4
A|----------------------------------------|
E|--0----------3--------0-----------------|


Backing Guitar

E|--------------------------|
B|--------------------------|
G|--------------------------|
D|--4444--7777--4444--7777--|          x4
A|--4444--7777--4444--7777--|
E|--2222--5555--2222--5555--|
Pm  xxxx  xxxx  xxxx  xxxx



Pre-Chorus
Lead Guitar

E|--------------------------------|
B|--------------------------------|
G|--55555555------------55555555--|
D|--55555555--55555555--55555555--|
A|--33333333--55555555--33333333--|
E|------------33333333------------|
Pm  Xxxxxxx   Xxxxxxxx  Xxxxxxxx

Backing Guitar

E|--------------------------------|
B|--------------------------------|
G|--77777777------------77777777--|
D|--77777777--77777777--77777777--|
A|--55555555--77777777--55555555--|
E|------------55555555------------|
Pm   Xxxxxxx  Xxxxxxxx  Xxxxxxxx


Chorus

Lead Guitar

E|--------------------------|
B|--------------------------|
G|--------5555--------7777--|
D|--2222--5555--5555--7777--|        x2
A|--2222--3333--5555--5555--|
E|--0000--------3333--------|

E|------------------|
B|------------------|
G|--------5555------|
D|--2222--5555--5~--|        (1bar rest)
A|--2222--3333--5~--|
E|--0000--------3~--|


E|--------------------------|
B|--------------------------|
G|--------5555--------7777--|
D|--2222--5555--5555--7777--|
A|--2222--3333--5555--5555--|
E|--0000--------3333--------|

Backing Guitar

E|--------------------------|
B|--------------------------|
G|--------7777--------9999--|
D|--4444--7777--7777--9999--|        x2
A|--4444--5555--7777--7777--|
E|--2222--------5555--------|

E|------------------|
B|------------------|
G|--------7777------|
D|--4444--7777--7~--|
A|--4444--5555--7~--|
E|--2222--------5~--|

E|--------------------------|
B|--------------------------|
G|--------7777--------7777--|
D|--4444--7777--7777--7777--|
A|--4444--5555--7777--9999--|
E|--2222--------5555--------|

Bridge

Lead Guitar

E|-----x-------------------|
B|-----x-------------------|
G|-----x-------------------|
D|--2--x---------55555555--|        x3
A|--2--x--(x16)--55555555--|
E|--0--x---------33333333--|

E|----------------------|
B|----------------------|
G|--55555555--77777777--|
D|--55555555--77777777--|
A|--33333333--55555555--|
E|----------------------|

Backing Guitar

E|-----------------------|
B|-----------------------|
G|-----------------------|
D|--4----------77777777--|        x3
A|--4--(rest)--77777777--|
E|--2----------55555555--|

E|----------------------|
B|----------------------|
G|--77777777--99999999--|
D|--77777777--99999999--|
A|--55555555--77777777--|
E|----------------------|
            
Submit corrections

comments powered by Disqus
↑ Back to top | Kelly Clarkson Tabs for Behind These Hazel Eyes. Lyrics for acoustic guitar and electric guitar. 1 Tablatures and chords are parodies/interpretations of the original songs. You may use it for private study, scholarship, research or language learning purposes only