» » »

Behind These Hazel Eyes Tabs (ver.1)

Artists:  A B C D E F G H I J K L M N O P Q R S T U V W X Y Z # 

Behind These Hazel Eyes Tabs (ver.1)

Kelly Clarkson
Rating:
4/5 (9 votes)

Hard to play? Try these video lessons and learn fast.
                
Standard tuning

. = staccato/short note


|--------------------------|---------------------------|
|--------------3---3--3--3-|---------------------------|
|--------------2---2--2--2-|-2-----2-------------------|
|-4-----4------0---0--0--0-|-2-----2------2---2--2--2--|
|-4-----4------------------|-0--0--0--0---2---2--2--2--|
|-2--0--2--0---------------|--------------0---0--0--0--|


|--------------------------|---------------------------|
|--------------3---3--3--3-|---------------------------|
|--------------2---2--2--2-|-2-----2-------------------|
|-4-----4------0---0--0--0-|-2-----2------2------------|
|-4-----4------------------|-0--0--0--0---2------------|
|-2--0--2--0---------------|--------------0------------|


 Verse:
 Gtr. 1                                            Repeat
|------------------------|-------------------------|
|------------------------|-------------------------|
|-------2--------2-------|-------2-----1--2--1-----|
|----4--------2-----2----|----2-----2-----------2--|
|----------5-----------5-|-0-----------------------|
|-2----------------------|-------------------------|


 Gtr. 1 (continue above)
 Gtr. 2 (0:21)
|--0----0----0----0--|
|-10---10---10---10--|
|--9----9----9----9--|
|--7----7----7----7--| 4x
|--0----0----0----0--|
|--------------------|


 Pre Chorus:
 Gtr. 1 (0:32)
|------------|------------|------------|------------|------------|
|-3----3---3-|-0----0---0-|-3----3---3-|-5--5--5--5-|-5.---------|
|-2----2---2-|-2----2---2-|-2----2---2-|-4--4--4--4-|-4.---------|
|-0----0---0-|-4----4---4-|-0----0---0-|-0--0--0--0-|-0.---------|
|------------|------------|------------|------------|------------|
|------------|------------|------------|------------|--------x\--|
                                                             *2nd time

 Chorus
|------------|------------|------------|-------------|
|------------|-3--3--3--3-|------------|-------------|
|------------|-2--2--2--2-|-2--2--2--2-|-------------|
|-4--4--4--4-|-0--0--0--0-|-2--2--2--2-|-2--2--2--2--|
|-4--4--4--4-|------------|-0--0--0--0-|-2--2--2--2--|
|-2--2--2--2-|------------|------------|-0--0--0--0--|


|------------|------------|------------|-------------|
|------------|-3--3--3--3-|------------|-------------|
|------------|-2--2--2--2-|-2--2--2--2-|-------------|
|-4--4--4--4-|-0--0--0--0-|-2--2--2--2-|-2--2--2--2--|
|-4--4--4--4-|------------|-0--0--0--0-|-2--2--2--2--|
|-2--2--2--2-|------------|------------|-0--0--0--0--|


|------------|------------|------------|-------------|
|------------|-3--3--3--3-|-3----------|-------------|
|------------|-2--2--2--2-|-4----------|-------------|
|-4--4--4--4-|-0--0--0--0-|-4----------|-------x--x--|
|-4--4--4--4-|------------|-2----------|-------x--x--|
|-2--2--2--2-|------------|------------|-------------|
                                               *2nd time

 (0:59)
|------------|-------------|------------|------------|
|------------|-3---3--3--3-|------------|------------|
|------------|-2---2--2--2-|-2-----2----|------------|
|-4-----4----|-0---0--0--0-|-2-----2----|-2----------|
|-4-----4----|-------------|-0--0--0--0-|-2----------|
|-2--0--2--0-|-------------|------------|-0----------|

Now go back and repeat everything from the verse down


 Bridge: (1:57)
|------------|------------|------------|-------------|
|------------|------------|------------|-------------|
|------------|----------2-|-2--2--2--2-|-2--2--2--2--|
|-4--4--x--x-|-x--x---x-2-|-2--2--2--2-|-2--2--2--2--|
|-2--2--x--x-|-x--x---x-0-|-0--0--0--0-|-0--0--0--0--|
|------------|------------|------------|-------------|


|------------|------------|------------|-------------|
|------------|------------|------------|-------------|
|------------|------------|------------|-------------|
|-4--4--x--x-|-x--x---x-4-|-4--4--4--4-|-4--4--4--4--|
|-2--2--x--x-|-x--x---x-4-|-4--4--4--4-|-4--4--4--4--|
|------------|----------2-|-2--2--2--2-|-2--2--2--2--|


|------------|------------|------------|-------------|
|------------|------------|------------|-------------|
|------------|----------2-|-2--2--2--2-|-2--2--2--2--|
|-4--4--x--x-|-x--x---x-2-|-2--2--2--2-|-2--2--2--2--|
|-2--2--x--x-|-x--x---x-0-|-0--0--0--0-|-0--0--0--0--|
|------------|------------|------------|-------------|


|------------|------------|------------|--------------|
|------------|------------|------------|--------------|
|-4--4--4--4-|-4--4--4--4-|-7--7--7--7-|-9--9--9--9.--|
|-4--4--4--4-|-4--4--4--4-|-7--7--7--7-|-9--9--9--9.--|
|-2--2--2--2-|-2--2--2--2-|-5--5--5--5-|-7--7--7--7.--|
|------------|------------|------------|--------------|


 (2:19)
|------------------------|-------------------------|
|------------------------|-------------------------|
|-------2--------2-------|-------2-----1--2--1-----|
|----4--------2-----2----|----2-----2-----------2--|
|----------5-----------5-|-0-----------------------|
|-2----------------------|-------------------------|


|------------------------|-------------------------|
|------------------------|-------------------------|
|-------2--------2-------|-2--2--2--2--------------|
|----4--------2-----2----|-2--2--2--2--------------|
|----------5-----------5-|-0--0--0--0--------------|
|-2----------------------|-------------------------|


|------------|------------|------------|-------------|
|------------|-3--3--3--3-|------------|-------------|
|------------|-2--2--2--2-|-2--2--2--2-|-------------|
|-4--4--4--4-|-0--0--0--0-|-2--2--2--2-|-2--2--2--2--|
|-4--4--4--4-|------------|-0--0--0--0-|-2--2--2--2--|
|-2--2--2--2-|------------|------------|-0--0--0--0--|


|------------|------------|------------|-------------|
|------------|-3--3--3--3-|------------|-------------|
|------------|-2--2--2--2-|-2--2--2--2-|-------------|
|-4--4--4--4-|-0--0--0--0-|-2--2--2--2-|-2--2--2--2--|
|-4--4--4--4-|------------|-0--0--0--0-|-2--2--2--2--|
|-2--2--2--2-|------------|------------|-0--0--0--0--|


|------------|------------|------------|-------------|
|------------|-3--3--3--3-|-3--3--3--3-|-3--3--3--3--|
|------------|-2--2--2--2-|-4--4--4--4-|-4--4--4--4--|
|-4--4--4--4-|-0--0--0--0-|-4--4--4--4-|-4--4--4--4--|
|-4--4--4--4-|------------|-2--2--2--2-|-2--2--2--2--|
|-2--2--2--2-|------------|------------|-------------|


|------------|------------|------------|-------------|
|------------|-3--3--3--3-|------------|-------------|
|------------|-2--2--2--2-|-2--2--2--2-|-------------|
|-4--4--4--4-|-0--0--0--0-|-2--2--2--2-|-2--2--2--2--|
|-4--4--4--4-|------------|-0--0--0--0-|-2--2--2--2--|
|-2--2--2--2-|------------|------------|-0--0--0--0--|


|------------|------------|------------|-------------|
|------------|-3--3--3--3-|------------|-------------|
|------------|-2--2--2--2-|-2--2--2--2-|-------------|
|-4--4--4--4-|-0--0--0--0-|-2--2--2--2-|-2--2--2--2--|
|-4--4--4--4-|------------|-0--0--0--0-|-2--2--2--2--|
|-2--2--2--2-|------------|------------|-0--0--0--0--|

|------------|------------|------------|-------------|
|------------|-3--3--3--3-|-3----------|-------------|
|------------|-2--2--2--2-|-4----------|-------------|
|-4--4--4--4-|-0--0--0--0-|-4----------|-------x--x--|
|-4--4--4--4-|------------|-2----------|-------x--x--|
|-2--2--2--2-|------------|------------|-------------|


 (3:07)
|------------|-------------|------------|------------|
|------------|-3---3--3--3-|------------|------------|
|------------|-2---2--2--2-|-2-----2----|------------|
|-4-----4----|-0---0--0--0-|-2-----2----|-2----------|
|-4-----4----|-------------|-0--0--0--0-|-2----------|
|-2--0--2--0-|-------------|------------|-0----------|
            
Hard to play? Try these video lessons and learn fast. | Correct




comments powered by Disqus
↑ Back to top | Tablatures and chords are parodies/interpretations of the original songs. You may use it for private study, scholarship, research or language learning purposes only