» » »

Kellie Pickler, My Angel Tabs (ver.1)

Artists:  A B C D E F G H I J K L M N O P Q R S T U V W X Y Z # 

My Angel Tabs (ver.1)

Kellie Pickler Tabs
Rating:
0/5 (0 votes)
My Angel lessons Tabs too difficult? Try these video lessons and learn fast
                intro:
e|---0---2---0---0---3---0---2---0---0---3-- or -0-2----------0-2-----------|
B|---3---3---2---3---3---3---3---2---3---3--    ------2-3-----------2-3-----|
G|---2---3---2---2---0---2---2---2---2---0--    -----------0------------0---|
D|---0---0---2---2---0---0---0---2---2---0--    ----------------------------|
A|-----------0---0---2-----------0---0---2--    ----------------------------|
E|-------------------3-------------------3--    ----------------------------|

verse
e|----2---|---3---|---2---|---3---|----0---|---3---|---0---|---3---|--------|
B|----3---|---3---|---3---|---3---|----2---|---3---|---2---|---3---|--------|
G|----2---|---0---|---2---|---0---|----2---|---0---|---2---|---0---|--------|
D|----0---|---0---|---0---|---0---|----2---|---0---|---2---|---0---|--------|
A|--------|---2---|---0---|---2---|----0---|---2---|---0---|---2---|--------|
E|--------|---3---|-------|---3---|--------|---3---|-------|---3---|--------|

chorus
e|---2---|---0---|---3--0---|---3---|---2---|---0---|---3--0---|------------|
B|---3---|---2---|---3--2---|---2---|---3---|---2---|---3--2---|------------|
G|---2---|---2---|---0--2---|---0---|---2---|---2---|---0--2---|------------|
D|---0---|---2---|---0--2---|---0---|---0---|---2---|---0--2---|------------|
A|-------|---0---|---2--0---|---2---|-------|---0---|---2--0---|------------|
E|-------|-------|---3------|---3---|-------|-------|---3------|------------|


e|---0--2--------------------------------------------------------------------|
B|---------2--3--------------------------------------------------------------|
G|---------------0-----------------------------------------------------------|
D|---------------------------------------------------------------------------|
A|---------------------------------------------------------------------------|
E|---------------------------------------------------------------------------|

Rythm
e|--------------------------------------------------------------------------|
B|--------------------------------------------------------------------------|
G|------\-----\-----\-----/-----/-----\---\/\/------------------------------|
D|------\-----\-----\-----/-----/-----\---\/\/------------------------------|
A|--------------------------------------------------------------------------|
E|--------------------------------------------------------------------------|

/  upstroke
\  downstroke
            
Submit corrections

comments powered by Disqus
↑ Back to top | Kellie Pickler Tabs for My Angel. Lyrics for acoustic guitar and electric guitar. Tablatures and chords are parodies/interpretations of the original songs. You may use it for private study, scholarship, research or language learning purposes only