>
 >
Rockumal

Rockumal Guitar Tabs

Keller Williams - Rockumal chords, tabs, tablatures, lyrics

Guitar lessons | Add/correct | Request | Top 50 tabs Artists:  A B C D E F G H I J K L M N O P Q R S T U V W X Y Z 0-9

Rockumal Guitar Tabs – Keller Williams

CD, Sheet music, Poster

Do you like Rockumal? Share with your friends now
Tabs
Artist - Keller Williams
Song - Rockumal

Tuning: b A F C G D

b|--------0--0--0/--0------------0--0--0----0------------------------|
A|--------0--0--0/--0------------0--0--0----0------------------------|
F|--------7--7--7/--9------------7--7--7/---9/---12/---14/---12/---9-|
C|--------7--7--7/--9------------7--7--7/---9/---12/---14/---12/---9-|
G|--------5--5--5/--7------------5--5--5/---7/---10/---12/---10/---7-|
D|--0~~~--0--0--0/--0-----0~~~---0--0--0----0------------------------|

b|----------------------------------------------------------------------------------|
A|------------------------------------------------0--0--0----5--5--5--5/---7--7--7--|
F|-------7--7--7/--9--7--7--7/--9--7--7--7/--9----9--8--7----5--5--5--5/---7--7--7--|
C|-------7--7--7/--9--7--5--5/--9--7--7--7/--9----9--8--7----5--5--5--5/---7--7--7--|
G|-------5--5--5/--7--5--5--5/--7--5--5--5/--7----7--6--5----3--3--3--3/---5--5--5--|
D|--0~~~----------------------------------------------------------------------------|
        

b|---------------------------------<7>-----<5>------<7>-------<5>-----<7>------<9>--|
A|-------------------------<12>------<7>-----<5>-------<7>------<5>-----<7>----<9>--|
F|----------------------<12>-----------<7>------<5>-------<7>-----<5>-----<7>--<9>--|
C|------------------<12>-------------------------------------------------------<9>--|
G|-----------------------------------------------------------------------------<9>--|
D|--3/------(12\)----0~~~------------------------------------------------------<9>--|



b|---0----0----0-----0------0----0-----0----0--|
A|---0----0----0-----0------0----0-----0----0--|
F|--13---13--13----16----18---18---16---16-----|
C|--14---14--14----17----19---19---17---17-----| x3
G|--14---14--14----17----19---19---17---17-----|
D|---0----0----0-----0------0----0-----0----0--|

b|-----0-----0/----0\----0\----0\----0/---0\-----0----0---0----------------|
A|-----0-----0/----0\----0\----0\----0/---0\-----0----0---0-------------2--|
F|----13----16/---18\---16\---13\---11/--13\----11---11--13-------------2--|
C|----14----17/---19\---17\---14\---12/--14\----12---12--14-------------2--|
G|----14----17/---19\---17\---14\---12/--14\----12---12--14----12\------0--|
D|-----0-----0/----0\----0\----0\----0/---0\-----0----0---0----12\---------|

A > G > F > F > E

A > G > F > F > E

A > G > F > F > E*

b|-------------------------|
A|----------------------2--|
F|----------------------2--|
C|--------0-2-0---------2--|
G|--0-2---------2-0-2---0--|
D|-------------------------|

b|--------0--0--0/--0------------0--0--0----0------------------------|
A|--------0--0--0/--0------------0--0--0----0------------------------|
F|--------7--7--7/--9------------7--7--7/---9/---12/---14/---12/---9-|
C|--------7--7--7/--9------------7--7--7/---9/---12/---14/---12/---9-|
G|--------5--5--5/--7------------5--5--5/---7/---10/---12/---10/---7-|
D|--0~~~--0--0--0/--0-----0~~~---0--0--0----0------------------------|

b|----------------------------------------------------------------------------------|
A|------------------------------------------------0--0--0----5--5--5--5/---7--7--7--|
F|-------7--7--7/--9--7--7--7/--9--7--7--7/--9----9--8--7----5--5--5--5/---7--7--7--|
C|-------7--7--7/--9--7--5--5/--9--7--7--7/--9----9--8--7----5--5--5--5/---7--7--7--|
G|-------5--5--5/--7--5--5--5/--7--5--5--5/--7----7--6--5----3--3--3--3/---5--5--5--|
D|--0~~~----------------------------------------------------------------------------|
        

b|---------------------------------<7>-----<5>------<7>-------<5>-----<7>------<9>--|
A|-------------------------<12>------<7>-----<5>-------<7>------<5>-----<7>----<9>--|
F|----------------------<12>-----------<7>------<5>-------<7>-----<5>-----<7>--<9>--|
C|------------------<12>-------------------------------------------------------<9>--|
G|-----------------------------------------------------------------------------<9>--|
D|--3/------(12\)----0~~~------------------------------------------------------<9>--|

A > G > F > F > E

A > G > F > F > E

A > G > F > F > E*

b|-------------------------|
A|----------------------2--|
F|----------------------2--|
C|--------0-2-0---------2--|
G|--0-2---------2-0-2---0--|
D|-------------------------|


b|--(5)-(6)-(5)----------------------------------------------------------------------------------------|
A|---7---8---7---5--5---7---8--7---5--5--5--5--5--5---5---6---5---3--3---5---6---5---3--3--3--3--3--3--|
F|---6---7---6---4--4---6---7--6---4--4--4--4--4--4---4---5---4---2--2---4---5---4---2--2--2--2--2--2--|
C|---7---8---7---5--5---7---8--7---5--5--5--5--5--5---5---6---5---3--3---5---6---5---3--3--3--3--3--3--|
G|---5---6---5---3--3---5---6--5---3--3--3--3--3--3---3---4---3---1--1---3---4---3---1--1--1--1--1--1--|
D|--(5)-(6)-(5)----------------------------------------------------------------------------------------|

b|--(9)-(10)-(9)------------------------------------------|
A|---9---10---9---7--7--9--10--9---7---7---7---7---7---7--|
F|---8----9---8---6--6--8---9--8---6---6---6---6---6---6--|
C|---9---10---9---7--7--9--10--9---7---7---7---7---7---7--|
G|---7----8---7---5--5--7---8--7---5---5---5---5---5---5--|
D|--(7)--(8)-(7)------------------------------------------|

b|--(5)-(6)-(5)-------------------------------------------------------------------------------------------|
A|---7---8---7---5--5---7---8--7---5--5--5--5--5--5---5---6---5---3--3---5---6---5---3--3--3--3--3--3--3--|
F|---6---7---6---4--4---6---7--6---4--4--4--4--4--4---4---5---4---2--2---4---5---4---2--2--2--2--2--2--2--|
C|---7---8---7---5--5---7---8--7---5--5--5--5--5--5---5---6---5---3--3---5---6---5---3--3--3--3--3--3--3--|
G|---5---6---5---3--3---5---6--5---3--3--3--3--3--3---3---4---3---1--1---3---4---3---1--1--1--1--1--1--1--|
D|--(5)-(6)-(5)-------------------------------------------------------------------------------------------|





Comments


Popular Keller Williams tabs & chords
Best Feeling Chords
Dear Emily Chords
Its A Plant Chords
Thirsty In The Rain Chords
Airport Tabs
Best Feeling Tabs
Dear Emily Ukulele
Life Is Ukulele
Multisyllabic Ukulele
Yoni Ukulele


Song lyrics



↑ Back to top | Tablatures and chords are parodies/interpretations of the original songs. You may use it for private study, scholarship, research or language learning purposes only
© 2014 AZChords.com Contact us | Privacy policy | DMCA | Add/correct tabs | Request tabs | Top 50 tabs