» » »

Keller Williams, In The Middle Tabs (ver.1)

Artists:  A B C D E F G H I J K L M N O P Q R S T U V W X Y Z # 

In The Middle Tabs (ver.1)

Keller Williams Tabs
 Rating:
4/5 (4 votes)
In The Middle lessons Tabs too difficult? Try these video lessons and learn fast
1
                Artist - Keller Williams
Song - In The Middle

e|---------------------------------------*------------------|
B|---------------------------------------*------------------|
G|---------------------------------------*------------------|
D|---------------------------------------*------------------|
A|-----5-------3--3/2----------5----------------------------|
E|-\5-----33---------------\5-------3-----------------------|

Here I am
Sitting in the same place I have for years
Here I am
Looking at the same face I have for years

A       G 
Oh, the rain
A                G    
Makes a familiar sound
A              G                                A  
When the drops hit the roof before they hit the ground
                 G                  A
That's the sound that's bound to be found
G  
Way down
          Eb min    
In the middle


And oh, place to place
Is it really dues they say or just a (mother-effin') waste?
Close my eyes
It's a cool day far away in an amazing time

Oh, the rain
Makes a familiar sound
When the drops hit the roof before they hit the ground
That's the sound that's bound to be found
Oh, the rain
Is it my time to steal?
I've got the cards, do I know how to deal?
Will I stamp myself with a safety seal?
       A         Bb       B
Will I roll just like the wheel?

    A   Bb  B
e|--5---6---5-------5-----------5----5----------------------|
B|--5---6---5-----------5----5-----5------------------------|
G|--6---7---8------8------8-8-------8-----------------------|
D|--7---8---9--------9-9------9---9-------------------------|
A|--7---8---9-----9------9-----9------9---------------------|
E|--5---6---7----7----7----7-----7-----7--------------------|


B                                                            
Find myself alive and well
A                                                            
The story so hard to tell
Ab                                                            
About the time
                    F#     
I thought I saw the light
B                              A  
Something way deep down inside telling me
                   Ab
That it is time to fly
               F#
Or to at least try
         G
At least try
         Ab    G   F#  G   Ab    A (back to verse riff)                             
At least try - y - y - y - y --- y


Find myself alive and well
The story so hard to tell
About the time
I thought I saw the light
Something way deep down inside telling me
That it is time to fly
Or to at least try
At least try
At least try-y-y-y-y---y

Oh so it goes
I wonder if the motivational winds will ever blow
The seeds we sow
Always spring up nicely, inevitable weeds will grow

Oh, the rain
Is it my time to steal?
I've got the cards, do I know how to deal?
Will I stamp myself with a safety seal?
Will I roll just like the wheel?
Oh, the rain
Makes a familiar sound
When the drops hit the roof before they hit the ground
That's the sound that's bound to be found
Way way way down
In the middle
            
Submit corrections

comments powered by Disqus
↑ Back to top | Keller Williams Tabs for In The Middle. Lyrics for acoustic guitar and electric guitar. 1 Tablatures and chords are parodies/interpretations of the original songs. You may use it for private study, scholarship, research or language learning purposes only