» » »

Keller Williams, Illegal Smile Tabs (ver.1)

Artists:  A B C D E F G H I J K L M N O P Q R S T U V W X Y Z # 

Illegal Smile Tabs (ver.1)

Keller Williams Tabs
 Rating:
4/5 (4 votes)
Illegal Smile lessons Tabs too difficult? Try these video lessons and learn fast
1
                Artist - Keller Williams
Song - Illegal Smile

e|--0--0------|
B|--1--1------|
G|--0--0------|
D|--2--0h2----| x3
A|--3--3------|
E|------------|


e|--0---------------------0------------------3-----0------0-------|
B|--1---------------------1-----1------------0(3)--1------1-------|
G|--0---------------------0-----2------------0-----0------0-------|
D|--2---------------------0-----3------------0-----2------2-0-2-3-|
A|--3---------------------2------------------2-----3------3-------|
E|-------------------------------------------3--------------------|

e|-------------------------3------------------3--------------|
B|---1----------------------------------1-----0------1-------|
G|---2---------------------0------------2-----0------0-------|
D|---3---------------------0------------3-----0------2-0-2-3-|
A|-------------------------2------------------2------3-------|
E|-------------------------3------------------3--------------|

e|------------------------3-----------------0---0---0-------|
B|---1--------------------0-----------------1---1---1-------|
G|---2--------------------0-----------------0---2---0-------|
D|---3--------------------0-----------------2---3---2-------|
A|------------------------2-----------------3-------3-------|
E|------------------------3---------------------------------|

e|--------------3---------------------------------------0------0--|
B|--------------0------------------------1--------------1---1--1--|
G|--------------0------------------------2--------------0---2--0--|
D|--------------0------------------------3--------------2---3--2--|
A|--------------2---------------------------------------3------3--|
E|--------------3-------------------------------------------------|

             G         F        C       F     G   C
ah but fortunately i have the key to escape reality


              F                        C                     G                     C
and you may see me tonight with an illegal smile it don't cost very much but it lasts a 
while"


            F                          C         G                   F           C
won't you please tell the man i did't kill anyone i'm just tryin to have me some fun"


e|------------------------------------|
B|------------------------------------|
G|------------------------------------|
D|----------------------3-------------|
A|---3-3----0-2-3-3---0---3-3----0-2--|
E|--------3---------3----------3------|
            
Submit corrections

comments powered by Disqus
↑ Back to top | Keller Williams Tabs for Illegal Smile. Lyrics for acoustic guitar and electric guitar. 1 Tablatures and chords are parodies/interpretations of the original songs. You may use it for private study, scholarship, research or language learning purposes only