» » »

Trick Me Tabs (ver.2)

Artists:  A B C D E F G H I J K L M N O P Q R S T U V W X Y Z # 

Trick Me Tabs (ver.2)

Kelis
Rating:
0/5 (0 votes)

Hard to play? Try these video lessons and learn fast.
                Artist    : Kelis
Song      : Trick Me

. - palm mute

Riff 1

e|---------4-2-4--|
B|---------4-2-4--|
G|----------------|
D|--4-6-----------|
A|----------------|
E|----------------|

Riff 2

e|-6-6-4-4-4-4-4-4-|
B|-7-7-5-5-4-4-4-4-|
G|-----------------|
D|-----------------|
A|-----------------|
E|-----------------|
   . . . . . . . .
            
Hard to play? Try these video lessons and learn fast. | Correct




comments powered by Disqus
↑ Back to top | Tablatures and chords are parodies/interpretations of the original songs. You may use it for private study, scholarship, research or language learning purposes only