» » »

Kele, Unholy Thoughts Tabs (ver.1)

Artists:  A B C D E F G H I J K L M N O P Q R S T U V W X Y Z # 

Unholy Thoughts Tabs (ver.1)

Kele Tabs
 Rating:
4.3/5 (6 votes)
Unholy Thoughts lessons Tabs too difficult? Try these video lessons and learn fast
                good song, pretty simple :)

Main Riff
e|-----------------------------------------------------------------|
B|-----------------------------------------------------------------|
G|-----------------------------------------------------------------|
D|22222225--------22222225--------22222225-------------------------|
A|--------33333335--------33333335--------33333335------------2222-|
E|------------------------------------------------333333335555-----|

Chorus - Main Riff plays underneath
e|--------------------------------------------|
B|--------------------------------------------|
G|--------------------------------------------|
D|5/7777\555-5/7777\555-5/7777\555-5/7777/9\5-|
A|--------------------------------------------|
E|--------------------------------------------|

Break "The mind is powerful"
e|0~--0~--3~------0~--0~--3~-----0~--0~--3~--2~--0~------0~--0~--|
B|1~--1~--3~------1~--1~--3~-----1~--1~--3~--3~--1~------1~--3~--|
G|0~--2~--0~------0~--2~--0~-----0~--2~--0~--2~--0~------0~--0~--|
D|2~--2~--0~------2~--2~--0~-----2~--2~--0~--0~--2~------2~--4~--|
A|3~--0~--2~------3~--0~--2~-----3~--0~--2~------3~------3~--5~--|
E|---------------------------------------------------------------|

Outro
e|-----------------------------------------------------------------|
B|-----------------------------------------------------------------|
G|-----------------------------------------------------------------|
D|222000----------222000----------222000---------------------------|
A|------22333-----------22333-----------22333----------------------|
E|-----------33355-----------33355-----------333550002223335557777-|

e|------------------------------------------------------------------|
B|------------------------------------------------------------------|
G|------------------------------------------------------------------|
D|222000----------222000----------222000----------------------------|
A|------22333-----------22333-----------22333-----------------------|
E|-----------33355-----------33355-----------3335550002223335557788-|

e|-----------------------------------------------------------------|
B|-----------------------------------------------------------------|
G|-----------------------------------------------------------------|
D|222000----------222000----------222000---------------------------|
A|------22333-----------22333-----------22333--------222---2223322-|
E|-----------33355-----------33355-----------33355000---333--------|

e|-------------------------------------------|
B|-------------------------------------------|
G|-------------------------------------------|
D|-------------------------------------------|
A|---222---2223322---222---2223322---222-----|
E|000---333-------000---333-------000---3~---|

there ya go, nice n easy :D
            
Submit corrections

comments powered by Disqus
↑ Back to top | Kele Tabs for Unholy Thoughts. Lyrics for acoustic guitar and electric guitar. Tablatures and chords are parodies/interpretations of the original songs. You may use it for private study, scholarship, research or language learning purposes only