» » »

Don't Close Your Eyes ( Tabs (ver.2)

Artists:  A B C D E F G H I J K L M N O P Q R S T U V W X Y Z # 

Don't Close Your Eyes ( Tabs (ver.2)

Keith Whitley
Rating:
0/5 (0 votes)

Hard to play? Try these video lessons and learn fast.
                Ok. Good Song, Have Fun!

  1                2
e|----------------|--------0-------------2---------------------------|
B|----------------|------1---1---------3---3-------------------------|
G|----0-2-2h3-2-0-|----0-------0-----2-------2------------------0----|
D|--0-------------|---2---------2-0-----------0---------0-----2---2--|
A|----------------|-3---------------------------0-----2---2-3--------|
E|----------------|-------------------------------0-3----------------|
  3
e|---------|
B|---------|
G|---------|
D|-----0---|
A|---2---2-|
E|-3-------|     keep repeating 2 and 3(numbers above sections) untill the song stops 
play 1 and go straight into 2.
            
Hard to play? Try these video lessons and learn fast. | Correct




comments powered by Disqus
↑ Back to top | Tablatures and chords are parodies/interpretations of the original songs. You may use it for private study, scholarship, research or language learning purposes only