>
 >
Sweet Thing 1

Sweet Thing 1 Guitar Tabs

Keith Urban - Sweet Thing 1 chords, tabs, tablatures, lyrics

Guitar lessons | Add/correct | Request | Top 50 tabs Artists:  A B C D E F G H I J K L M N O P Q R S T U V W X Y Z 0-9

Sweet Thing 1 Guitar Tabs – Keith Urban

CD, Sheet music, Poster

Do you like Sweet Thing 1? Share with your friends now
ChordsChords v2Chords v3TabsTabs v2Tabs v3Tabs v4Tabs v5Ukulele
This sounds pretty good just on a normal sound, but it will sound better with a delay 
 1 time                                       x4                    x2
e|-6~-|-----------7-7--------------7-7-7-7-------|---9p7-9p7--9p7-9p7-|
B|-4~-|------------------------------------------|--------------------|
G|----|--9p8-8h9----------8h9-8h9----------------|--------------------|
D|----|------------------------------------------|--------------------|
A|----|------------------------------------------|--------------------|
E|----|------------------------------------------|--------------------|

Verse
1st verse-listen for timing  2nd verse - each note palm muted
e|---------6~-------------|--------------------------------|
B|---------4~-------------|--------------------------------|
G|------------------------|--------/9-9-9-9-9---8-9-9-9-9--|
D|------------------------|--------------------------------|
A|------------------------|--------------------------------|
E|------------------------|--------------------------------|

Chorus - all chords
D
Sweet thing, The moon is high and the night is young
G
Come on and meet me, In the backyard under the cottonwood tree
Asus4                          G
It's a good thing and I'm wishin
D
C'mon sweet thing

Won't you climb on out of your window
                        G
While the world is sleepin

Cause you know I need you
                            Asus4
And there's no way I'll be leavin
                                G
Til we're kissing on the porch swing

Oh my little sweet thing

Intro
2nd Verse
Chorus
Solo
                  x3
e|-------------------|----------------------|
B|---/11-/11-/8h9-11-|-13b-11-13b-12-13b-12-|
G|-------------------|----------------------|
D|-------------------|----------------------|  1st part of solo again
A|-------------------|----------------------|
E|-------------------|----------------------|

e|---/20-/20-/17h18-/20--20b-20-20b-19-19b~-|
B|------------------------------------------|
G|------------------------------------------| Random notes
D|------------------------------------------| Haven't figured out yet.
A|------------------------------------------|
E|------------------------------------------|

Chorus - first half of chorus you don't play anything.
Outro - All Chords - Alternate  D and Dsus4
Intro until fade out.





Comments


Popular Keith Urban tabs & chords
I Told You So 1 Chords
Stupid Boy 2 Chords
Tonight I Wanna Cry Chords
Better Life 1 Tabs
Boby Was A Young Boy Tabs
Days Go By (perfect Riff) Tabs
Nobody Drinks Alone Tabs
Only You Can Love Me This Way 2 Tabs
You Look Good In My Shirt (End Solo) Tabs
You'll Think Of Me Best Version Ever Tabs


Song lyrics



↑ Back to top | Tablatures and chords are parodies/interpretations of the original songs. You may use it for private study, scholarship, research or language learning purposes only
© 2014 AZChords.com Contact us | Privacy policy | DMCA | Add/correct tabs | Request tabs | Top 50 tabs