» » »

Keith Urban, Somebody Like You Chords (ver.2)

Artists:  A B C D E F G H I J K L M N O P Q R S T U V W X Y Z # 

Somebody Like You Chords (ver.2)

Keith Urban Tabs
Rating:
0/5 (0 votes)
Hard to play? Try these video lessons and learn fast.
                Love somebody like you

here's a song be country musics favorite Aussi that doesn't involve a capo.

the solo's here too, if any one's interested!

Intro: E (strum)

E
There's a new wind blowin' like I've never known

I'm breathin' deeper than I've ever done
       A                                         E
And it sure feels good to finally feel the way I do
            B              A                  E
And I wanna love somebody, love somebody like you


And I'm lettin' go of all my lonely yesterdays
I've forgiven myself for the mistakes I've made
Now there's just one thing, the only thing I wanna do
I wanna love somebody, love somebody like you

(Chorus)
                      A
Yeah I wanna feel the sunshine,
                       E        G#maj7 F#maj7 E7
shinin' down on me and you
                        A
When you put your arms around me,

ya let me know there's
               C#            F#
nothin' in the world I can't do

I used to run in circles, goin' nowhere fast
I'd take one step forward, end up two steps back
I couldn't walk a straight line, even if I wanted to
I wanna love somebody, love somebody like you
Oh, here we go now...

-----------------------------------------------------|
B-12-12----9----9h11-9---------12-12---9----9h11-9---|
G-11-11bh----11----------------11-11bh---11----------|
D----------------------------------------------------|
A----------------------------------------------------|
E-----------------------2/15/0-----------------------|

E-0--0--0--0---0-----0-----0-----0----0---0---0------|
B-17-17-17-16b-16/14-14/12-12/10-10/9-9/7-7/5-5--3/5-|
G------------------------------------------------2/4-|
D----------------------------------------------------|
A----------------------------------------------------|
E----------------------------------------------------|

E-----------------------------------------------------------|
B-----------------------------------------------------------|
G-----------------------------------------------------------|
D-4-4bh-2---2h4-2----------------------------------2-2-2/12-|
A---------4--------------4b-4b-4b-2---2---2-2-2/12----------|
E-----------------2/15/0------------4-----------------------|

E-----------------------12-12--10/12-------------------|
B------------------5/12--------------------------------|
G--2-2-2/12----9---------------------------------------|
D--------------9br-------------------------------------|
A------------------------------------------------------|
E------------------------------------------------------|


(Chorus)

Sometimes its hard for me to understand
But you're teachin' me to be a better man
I don't want to take this life for granted like I used to do
No, I wanna love somebody, love somebody like you
I'm ready to love somebody, love somebody like you
        B               A A
I wanna love some body, love somebody like you

End Solo: E (strum)
            

comments powered by Disqus
↑ Back to top | Keith Urban Chords for Somebody Like You. Lyrics for acoustic guitar and electric guitar. Tablatures and chords are parodies/interpretations of the original songs. You may use it for private study, scholarship, research or language learning purposes only