>
 >
Shut Out The Lights

Shut Out The Lights Guitar Tabs

Keith Urban - Shut Out The Lights chords, tabs, tablatures, lyrics

Guitar lessons | Add/correct | Request | Top 50 tabs Artists:  A B C D E F G H I J K L M N O P Q R S T U V W X Y Z 0-9

Shut Out The Lights Guitar Tabs – Keith Urban

CD, Sheet music, Poster

Do you like Shut Out The Lights? Share with your friends now
ChordsTabs
Keith Urban - Shut Out The Lights
Get Closer


Capo I, Drop D
Written as actual fret, except for open strings, which are written 0

G:     6x004x
A:     x0333x
Em7:   33304x
A/F#:  5x333x
F#m:   5x5333x



Theme:
e|---------x-------x----------------------------------|
B|---------x-------x----------------------------------|
G|-7-8-7-8-x-7-7-8-x-7--7--7-8-7-8--------------------|
D|-8-8-8-8-x-8-8-8-x-8--8--8-8-8-8--------------------|
A|-6-6-6-6-x-6-6-6-x-6--6--6-6-6-6--------------------|
D|---------x-------x----------------------------------|
Play this first time through, then for second time, add 6 on low D string for root note
He plays variations of this riff throughout the song


Intro:  Theme 2x
Verse:  Theme 4x

Pre chorus:
G   A    G    A    Em7   F#m    G   (A)


Chorus:   Theme 2x
e|--------------------------------------------------|
B|---4-----------0--4-----4-------------------------|
G|-5---3-0-------0--3---5---3--0----0---------------|
D|----------5-0-------------------5-----------------|
A|--------------------------------------------------|
D|--------------------------------------------------|


Verse 2:   Theme 1x, end on F#m

Pre Chorus 2 is same as 1

Chorus 2 chords are same as chorus 1
e|---------------------------------3----------------|
B|---4----------------------4---------4-------------|
G|-5---3-0-------0-3------5---3-0-------------------|
D|---------5-0-0------------------------------------|
A|--------------------------------------------------|
D|--------------------------------------------------|


Bridge chords:
G:   6x000x
A/G: 6x333x

     G      A/G (3X)
e|--------------------------------------------------|
B|--8--------6--------------------------------------|
G|--8--------7--------------------------------------|
D|--10-------8--------------------------------------|
A|--------------------------------------------------|
D|--------------------------------------------------|
   The second guitar uses these voicings and plays single notes


Solo (He uses an octave up effect)
e|-----------------------------------------------------------------------------|
B|-8----8----8-8b9rb8\6--6---6--------8----8----8b9rb8-6---6----6b7------------|
G|-----------------------------8-7-5-------------------------------8-7-5~------|
D|---10---10------------8--8------------10---10----------8---8-----------------|
A|-----------------------------------------------------------------------------|
D|-----------------------------------------------------------------------------|


Into another Prechorus


Chorus:
     D          G
e|--0------------------------------------------------|
B|--4-----------4----15-15-15b16~--------------------|
G|--3-----------0------------------------------------|
D|--0-----------0------------------------------------|
A|--0------------------------------------------------|
D|--0-----------6------------------------------------|
    Play this 3x



Outro Solo:
e|--------------------------------------------------|
B|-18b21rb18--16-15-16-pb18rb16-16-15---------------|
G|------------------------------------15~-----------|
D|--------------------------------------------------|
A|--------------------------------------------------|
D|--------------------------------------------------|

         All notes with volume swell
e|--------------------------------------------------|
B|---13-------------11------------------------------|
G|----------12--------------\10---------------------|
D|--------------------------------------------------|
A|--------------------------------------------------|
D|--------------------------------------------------|

e|-------------------------------------------------------------|
B|------------------------------------------8-6--------3-------|
G|-------------------------------------3~-------8-7--5---5b7---|
D|-0h3h5-3-0---------------------0-3/5-------------------------|
A|-----------5-3b5rb3~-------0h3-------------------------------|
D|-----------------------0h3-----------------------------------|

Ending Chord:
e|---------------|
B|---------------|
G|-7-8-7-8-------|
D|-8-8-8-8-------|
A|-6-6-6-6-------|
D|-6-6-6-6-------|





Comments


Popular Keith Urban tabs & chords
Kiss A Girl 3 Chords
You're The Only One Chords
Homespun Love Tabs
Kiss A Girl 1 Tabs
Kiss A Girl 4 Tabs
Rollercoaster (full Song) Tabs
Til Summer Comes Around Intro 1 Tabs
Your Everything 1 Tabs
I Told You So Ukulele
One Chord Song Ukulele


Song lyrics



↑ Back to top | Tablatures and chords are parodies/interpretations of the original songs. You may use it for private study, scholarship, research or language learning purposes only
© 2014 AZChords.com Contact us | Privacy policy | DMCA | Add/correct tabs | Request tabs | Top 50 tabs