» » »

Shine Tabs (ver.2)

Artists:  A B C D E F G H I J K L M N O P Q R S T U V W X Y Z # 

Shine Tabs (ver.2)

Keith Urban
Rating:
0/5 (0 votes)

Tabs too difficult? Try these video lessons and learn fast.
                Keith Urban - Shine (Solo)

I won't ever let you down, So come on now...


e------------------------------------------------------------
B-------12b-12-10----10-12-10-----12b-12-10----10-12---------
G-----------------11------------------------11-------11------
D------------------------------------------------------------
A------------------------------------------------------------
E--10\-------------------------------------------------------

e---------------------------------------------------
B----------------------------------------19---------
G----4--4--4b-4b-4b-4b-4b-4b-4b---4-2---------------
D-0-------------------------------------------------
A---------------------------------------------------
E---------------------------------------------------

e----------------------------14-------------14------------14-----------14-----------
B-19-19--17-17--15-15--14-------17-14-----14---17-14----14--17-14----14--17-14-17b--
G-------------------------16----------16b-----------16b----------16b----------------
D-----------------------------------------------------------------------------------
A-----------------------------------------------------------------------------------
E-----------------------------------------------------------------------------------
                                                                       Oh  Don't Sit 

e---12--12---12--12---12--12---12--12---12--12---12--12---12--12---12--12---12--12-----
B-----12-------12-------12-------12-------12-------12-------12-------12-------12-------
G-9--------9--------9--------9--------9--------9--------9--------9---------9-----------
D--------------------------------------------------------------------------------------
A--------------------------------------------------------------------------------------
E--------------------------------------------------------------------------------------
there with you heart under lock and key Just give me one chance and baby I can set you free
            
Tabs too difficult? Try these video lessons and learn fast.


comments powered by Disqus
↑ Back to top | Tablatures and chords are parodies/interpretations of the original songs. You may use it for private study, scholarship, research or language learning purposes only