» » »

Only You Can Love Me This Way Tabs (ver.3)

Artists:  A B C D E F G H I J K L M N O P Q R S T U V W X Y Z # 

Only You Can Love Me This Way Tabs (ver.3)

Keith Urban
Rating:
0/5 (0 votes)

Hard to play? Try these video lessons and learn fast.
                Only You Can Love Me This Way is a Great Great song from
 Keith Urban's New Album Defying Gravity!
It's Healing to me and an Amazing song to jam to!
Any Corrections then just leave comments!


INTRO:
                                     \
e|----------------------------------  |
B|----6/7-5-5/3-3/2-2-0-------------  |
G|----6/7-6-6/4-4/2-2-0-------------  |
D|----------------------------------  |
A|----------------------------------  |
E|----------------------------------  |
                                      |
    D  D  U  U  D  D U D U            |
e|--3--3--3--3--3--3-3-3-3----------  |
B|--3--3--3--3--3--3-3-3-3----------  |
G|--0--0--0--0--0--0-0-0-0----------  |  *Repeat 2 Times*
D|--0--0--0--0--0--0-0-0-0----------  |
A|--X--X--X--X--X--X-X-X-X----------  |
E|--5--5--5--5--5--5-5-5-5----------  |
                                      |
    D    D                            |
e|--0----0--------------------------  |
B|--3----3--------------------------  |
G|--2----2--------------------------  |
D|--0----0--------------------------  |
A|--0----0--------------------------  |
E|--0----0--------------------------  |
                                      |
                                      /


e|----------------------------------|
B|----6/7-5-5/3-3/2-2-0-------------|
G|----6/7-6-6/4-4/2-2-0-------------|
D|----------------------------------|
A|----------------------------------|
E|----------------------------------|

    Well I know theres a reason

    D  D  U  U  D  D U D U
e|--3--3--3--3--3--3-3-3-3----------|
B|--3--3--3--3--3--3-3-3-3----------|
G|--0--0--0--0--0--0-0-0-0----------|
D|--0--0--0--0--0--0-0-0-0----------|
A|--X--X--X--X--X--X-X-X-X----------|
E|--5--5--5--5--5--5-5-5-5----------|

    D    D
e|--0----0--------------------------|
B|--3----3--------------------------|
G|--2----2--------------------------|
D|--0----0--------------------------|
A|--0----0--------------------------|
E|--0----0--------------------------|


e|----------------------------------|
B|----6/7-5-5/3-3/2-2-0-------------|
G|----6/7-6-6/4-4/2-2-0-------------|
D|----------------------------------|
A|----------------------------------|
E|----------------------------------|


   And I know theres a Rhyme

    D  D  U  U  D  D U D U
e|--3--3--3--3--3--3-3-3-3----------|
B|--3--3--3--3--3--3-3-3-3----------|
G|--0--0--0--0--0--0-0-0-0----------|
D|--0--0--0--0--0--0-0-0-0----------|
A|--X--X--X--X--X--X-X-X-X----------|
E|--5--5--5--5--5--5-5-5-5----------|

    D    D
e|--0----0--------------------------|
B|--3----3--------------------------|
G|--2----2--------------------------|
D|--0----0--------------------------|
A|--0----0--------------------------|
E|--0----0--------------------------|


e|----------------------------------|
B|----6/7-5-5/3-3/2-2-0-------------|
G|----6/7-6-6/4-4/2-2-0-------------|
D|----------------------------------|
A|----------------------------------|
E|----------------------------------|


  We were meant to be together

    D  D  U  U  D  D U D U
e|--3--3--3--3--3--3-3-3-3----------|
B|--3--3--3--3--3--3-3-3-3----------|
G|--0--0--0--0--0--0-0-0-0----------|
D|--0--0--0--0--0--0-0-0-0----------|
A|--X--X--X--X--X--X-X-X-X----------|
E|--5--5--5--5--5--5-5-5-5----------|


                   And Thats Why.......

    D  D  U  U  D  D U D U
e|--0--0--0--0--0--0-0-0-0----------|
B|--3--3--3--3--3--3-3-3-3----------|
G|--2--2--2--2--2--2-2-2-2----------|
D|--0--0--0--0--0--0-0-0-0----------|
A|--0--0--0--0--0--0-0-0-0----------|
E|--0--0--0--0--0--0-0-0-0----------|


    D  D  U  U  D  D U D U
e|--0--0--0--0--0--0-0-0-0----------|
B|--0--0--0--0--0--0-0-0-0----------|
G|--1--1--1--1--1--1-1-1-1----------|
D|--2--2--2--2--2--2-2-2-2----------|
A|--2--2--2--2--2--2-2-2-2----------|
E|--0--0--0--0--0--0-0-0-0----------|

    D~~~~~~~~~~~~
e|--0-------------------------------|
B|--2-------------------------------|
G|--2-------------------------------|
D|--0-------------------------------|
A|--0-------------------------------|
E|--0-------------------------------|


e|----------------------------------|
B|----6/7-5-5/3-3/2-2-0-------------|
G|----6/7-6-6/4-4/2-2-0-------------|
D|----------------------------------|
A|----------------------------------|
E|----------------------------------|

Well Thats the Verses!:) Just continue this pattern
on all of the verses! You know you guys are good enough
player to figure it out! ;)

Here is the Chorus Chords


CHORUS:

(1st time): You're always in my Heart.....

(2nd time): When It all becomes to much.....
                                     \
    D  D  U  U  D  D U D U           |
e|--3--3--3--3--3--3-3-3-3---------- |
B|--3--3--3--3--3--3-3-3-3---------- |
G|--0--0--0--0--0--0-0-0-0---------- |
D|--0--0--0--0--0--0-0-0-0---------- |
A|--X--X--X--X--X--X-X-X-X---------- |
E|--5--5--5--5--5--5-5-5-5---------- |
                                     | *Repeat 2 Times*
                                     |
(1st time) You're Always on my Mind  |
                                     |
(2nd time) You're never far          |
behind.                              |
                                     |
    D  D  U  U  D  D U D U           |
e|--0--0--0--0--0--0-0-0-0---------- |
B|--3--3--3--3--3--3-3-3-3---------- |
G|--2--2--2--2--2--2-2-2-2---------- |
D|--0--0--0--0--0--0-0-0-0---------- |
A|--0--0--0--0--0--0-0-0-0---------- |
E|--0--0--0--0--0--0-0-0-0---------- |
                                     /

And theres no one that comes close to
you could


    D  D U D U D  D U D U D
e|--2--2-2-2-2-2--2-2-2-2-2---------|
B|--3--3-3-3-3-3--3-3-3-3-3---------|
G|--4--4-4-4-4-4--4-4-4-4-4---------|
D|--4--4-4-4-4-4--4-4-4-4-4---------|
A|--2--2-2-2-2-2--2-2-2-2-2---------|
E|--2--2-2-2-2-2--2-2-2-2-2---------|


Ever take your


   D  D U D U D  D U D U D
e|--2--2-2-2-2-2--2-2-2-2-2---------|
B|--2--2-2-2-2-2--2-2-2-2-2---------|
G|--2--2-2-2-2-2--2-2-2-2-2---------|
D|--4--4-4-4-4-4--4-4-4-4-4---------|
A|--4--4-4-4-4-4--4-4-4-4-4---------|
E|--2--2-2-2-2-2--2-2-2-2-2---------|


Place~~~~~~~~~~


    D  D U D U D  D U D U D
e|--0--0-0-0-0-0--0-0-0-0-0---------|
B|--0--0-0-0-0-0--0-0-0-0-0---------|
G|--1--1-1-1-1-1--1-1-1-1-1---------|
D|--2--2-2-2-2-2--2-2-2-2-2---------|
A|--2--2-2-2-2-2--2-2-2-2-2---------|
E|--0--0-0-0-0-0--0-0-0-0-0---------|


'Cause only you can love me this way....

    D~~~~~~~~~~~~~~~~
e|--0-------------------------------|
B|--2-------------------------------|
G|--2-------------------------------|
D|--0-------------------------------|
A|--0-------------------------------|
E|--0-------------------------------|


e|----------------------------------|
B|----6/7-5-5/3-3/2-2-0-------------|
G|----6/7-6-6/4-4/2-2-0-------------|
D|----------------------------------|
A|----------------------------------|
E|----------------------------------|

And Yes that is pretty much it! This is my 2nd tab,
and I think it is pretty correct. :)
You guys can figure out the rhythms and everything.
Comments and ratings appreciated!! :D
            
Hard to play? Try these video lessons and learn fast. | Correct




comments powered by Disqus
↑ Back to top | Tablatures and chords are parodies/interpretations of the original songs. You may use it for private study, scholarship, research or language learning purposes only