» » »

Keith Urban, Only You Can Love Me This Way Tabs (ver.2)

Artists:  A B C D E F G H I J K L M N O P Q R S T U V W X Y Z # 

Only You Can Love Me This Way Tabs (ver.2)

Keith Urban Tabs
Rating:
0/5 (0 votes)
Only You Can Love Me This Way lessons Tabs too difficult? Try these video lessons and learn fast
                Just tabbed this out. I think a few guys have the right idea, but not the
proper chords in some places. These are at least the right chords.

Tuning: Drop D

The intro repeats a few times at the beginning of the verse, it's a quirky
run to finger, but if you hammer on with your pinky and ring fingers on the
6/6 up to 7/7 frets, then switch to your index and middle to play down the
5/6, 3/4, and 2/2 chords it'll be easier... you'll see what i mean..

Throughout the song you can interchange these chords, up to you...
  Instead of this V play this V, or this V play this V...
e|---------------------------------|-----------------5-----------|
B|----------------------------3----|-----3-----------3-----------|
G|----------------2-----------2----|-----2-----------2-----------|
D|----------------0-----------0----|-----0-----------0-----------|
A|----------------5-----------0----|-----0-----------0-----------|
D|----------------5-----------5----|-----0-----------0-----------|
                  G           G          D           D


Only You Can Love Me This Way: Keith Urban

Intro:
e|--------------------------------------------------------------|
B|--6h7-7-5-5-3-3-2-2-0----------------------3--3---------------|
G|--6h7-7-6-6-4-4-2-2-0-2--2--2--2--2--2--2--2--2-----X2--------|
D|--0-0-0-0-0-0-0-0-0-0-0--0--0--0--0--0--0--0--0---------------|
A|----------------------5--5--5--5--5--5--5--0--0---------------|
D|----------------------5--5--5--5--5--5--5--0--0---------------|
                                    "Hmmmmmm" (on 2nd time)

Verse:
e|-------------------------------------------------------------------|
B|--6h7-7-5-5-3-3-2-2-0---------------------------3--3---------------|
G|--6h7-7-6-6-4-4-2-2-0---2--2--2--2--2--2--2--2--2--2-----X2--------|
D|--0-0-0-0-0-0-0-0-0-0---0--0--0--0--0--0--0--0--0--0---------------|
A|------------------------5--5--5--5--5--5--5--5--0--0---------------|
D|------------------------5--5--5--5--5--5--5--5--0--0---------------|
                            "Well I know there's a reason"
                            "And I know there's a rhyme"

e|-----------------------------------------------------------------|
B|--6h7-7-5-5-3-3-2-2-0----------------------3--3--3--3--3--3--2---|
G|--6h7-7-6-6-4-4-2-2-0-2--2--2--2--2--2--2--2--2--2--2--2--2--2---|
D|--0-0-0-0-0-0-0-0-0-0-0--0--0--0--0--0--0--0--0--0--0--0--0--2---|
A|----------------------5--5--5--5--5--5--5--0--0--0--0--0--0--0---|
D|----------------------5--5--5--5--5--5--5--4--4--4--2--2--2------|
                        "We were meant to be together that's why"

e|-----------------------------------------------------------------|
B|--6h7-7-5-5-3-3-2-2-0-------------------------3--3---------------|
G|--6h7-7-6-6-4-4-2-2-0---2--2--2--2--2--2--2---2--2-----X2--------|
D|--0-0-0-0-0-0-0-0-0-0---0--0--0--0--0--0--0---0--0---------------|
A|------------------------5--5--5--5--5--5--5---0--0---------------|
D|------------------------5--5--5--5--5--5--5---0--0---------------|
                            "We can roll with the punches"
                            "We can stroll hand in hand"

e|-----------------------------------------------------------------|
B|--6h7-7-5-5-3-3-2-2-0----------------------3--3--3--3--3--3--2---|
G|--6h7-7-6-6-4-4-2-2-0-2--2--2--2--2--2--2--2--2--2--2--2--2--2---|
D|--0-0-0-0-0-0-0-0-0-0-0--0--0--0--0--0--0--0--0--0--0--0--0--2---|
A|----------------------5--5--5--5--5--5--5--0--0--0--0--0--0--0---|
D|----------------------5--5--5--5--5--5--5--4--4--4--2--2--2------|
                        "When I say that it's forever will you understand"

Chorus:
e|-----------------------------------------------------------------|
B|-------------------------------------------3--3--3--3------------|
G|----------------------2--2--2--2--2--2--2--2--2--2--2------------|
D|----------------------0--0--0--0--0--0--0--0--0--0--0----X2------|
A|----------------------5--5--5--5--5--5--5--0--0--0--0------------|
D|----------------------5--5--5--5--5--5--5--4--4--4--4------------|
   "That you're always in my heart, you're always on my mind
    when it all becomes too much, you're never far behind"

e|-----------------------------------------------------------------|
B|--------------------------------0-------------------2------------|
G|--------------------------------4-------------------2------------|
D|--------------------------------4-strum-------------2-strum------|
A|--------------------------------2--------------------------------|
D|-----------------------------------------------------------------|
   "And there's no one that comes close to you, could ever take

e|-----------------------------------------------------------------|
B|----------3----------------3-------------------------------------|
G|----------2----------------2-------------------------------------|
D|----------0----------------0-------------------------------------|
A|----------2-strum----------0-let ring----------------------------|
D|----------2----------------5-------------------------------------|
   "your place..... cuz only you can love me this way..."

e|-------------------------------------------------------------|
B|--6h7-7-5-5-3-3-2-2-0----------------------3-----------------|
G|--6h7-7-6-6-4-4-2-2-0-2--2--2--2--2--2--2--2-----------------|
D|--0-0-0-0-0-0-0-0-0-0-0--0--0--0--0--0--0--0-----------------|
A|----------------------5--5--5--5--5--5--5--0-----------------|
D|----------------------5--5--5--5--5--5--5--0-----------------|

Verse:
e|--------------------------------------------------------------|
B|--6h7-7-5-5-3-3-2-2-0----------------------3--3---------------|
G|--6h7-7-6-6-4-4-2-2-0-2--2--2--2--2--2--2--2--2-----X2--------|
D|--0-0-0-0-0-0-0-0-0-0-0--0--0--0--0--0--0--0--0---------------|
A|----------------------5--5--5--5--5--5--5--0--0---------------|
D|----------------------5--5--5--5--5--5--5--0--0---------------|
                        "I could've turned a different corner"
                        "I coulda gone another place"

e|-----------------------------------------------------------------|
B|--6h7-7-5-5-3-3-2-2-0----------------------3--3--3--3--3--3--2---|
G|--6h7-7-6-6-4-4-2-2-0-2--2--2--2--2--2--2--2--2--2--2--2--2--2---|
D|--0-0-0-0-0-0-0-0-0-0-0--0--0--0--0--0--0--0--0--0--0--0--0--2---|
A|----------------------5--5--5--5--5--5--5--0--0--0--0--0--0--0---|
D|----------------------5--5--5--5--5--5--5--4--4--4--2--2--2------|
                        "But I'da never had this feeling that I feel today"

Chorus:
e|-----------------------------------------------------------------|
B|-------------------------------------------3--3--3--3------------|
G|----------------------2--2--2--2--2--2--2--2--2--2--2------------|
D|----------------------0--0--0--0--0--0--0--0--0--0--0----X2------|
A|----------------------5--5--5--5--5--5--5--0--0--0--0------------|
D|----------------------5--5--5--5--5--5--5--4--4--4--4------------|
   "And you're always in my heart, you're always on my mind
    when it all becomes too much, you're never far behind"

e|-----------------------------------------------------------------|
B|--------------------------------0-------------------2------------|
G|--------------------------------4-------------------2------------|
D|--------------------------------4-strum-------------2-strum------|
A|--------------------------------2--------------------------------|
D|-----------------------------------------------------------------|
   "And there's no one that comes close to you, could ever take

e|---------------------------------------------------------------|
B|----------3----------------3---------------------2-------------|
G|----------2----------------2---------------------2-------------|
D|----------0----------------0---------------------2-------------|
A|----------2-strum----------0-strum---------------0-------------|
D|----------2----------------5-----------------------------------|
   "your place..... cuz only you can love me this way..."

Breakdown:
e|-------------------------------|
B|--3---------2------------------|
G|--2---------2------------------|
D|--0---------2---------X3-------|
A|--0-strum---0-strum------------|
D|--5----------------------------|

Chorus:
e|------------------------------------------------------------------|
B|-------------------------------------------------------3----------|
G|---------------------------2---------------------------2----------|
D|---------------------------0---------------------------0----------|X2
A|---------------------------5-ring----------------------0-ring-----|
D|---------------------------5--tap-tap------------------4----------|tap-tap
   "And you're always in my heart, you're always on my mind
    when it all becomes too much, you're never far behind"

e|-----------------------------------------------------------------|
B|--------------------------------0-------------------2------------|
G|--------------------------------4-------------------2------------|
D|--------------------------------4-strum-------------2-strum------|
A|------------------------3h5-4---2--------------------------------|
D|--------------------4--------------------------------------------|
   "And there's no one that comes close to you, could ever take

e|---------------------------------------------------------------|
B|----------3----------------3-----------------------------------|
G|----------2----------------2-----------------------------------|
D|----------0----------------0-----------------------------------|
A|----------2-strum----------0-let ring--------------------------|
D|----------2----------------5-----------------------------------|
   "your place..... cuz only you can love me this way..."

Outro:
e|--------------------------------------------------------------|
B|--6h7-7-5-5-3-3-2-2-0----------------------3--3---------------|
G|--6h7-7-6-6-4-4-2-2-0-2--2--2--2--2--2--2--2--2-----X3--------|
D|--0-0-0-0-0-0-0-0-0-0-0--0--0--0--0--0--0--0--0---------------|
A|----------------------5--5--5--5--5--5--5--0--0---------------|
D|----------------------5--5--5--5--5--5--5--0--0---------------|
                        "Only you can love me this way" 3rd time only

e|----------------------------------------------5---------------|
B|--6h7-7-5-5-3-3-2-2-0-------------------------3---------------|
G|--6h7-7-6-6-4-4-2-2-0-2--2--2--2--2--2--2-----2---------------|
D|--0-0-0-0-0-0-0-0-0-0-0--0--0--0--0--0--0-----0---------------|
A|----------------------5--5--5--5--5--5--5-----0--let ring-----|
D|----------------------5--5--5--5--5--5--5-----0---------------|


THANKS FOR LOOKING! ENJOY!
            
Submit corrections

comments powered by Disqus
↑ Back to top | Keith Urban Tabs for Only You Can Love Me This Way. Lyrics for acoustic guitar and electric guitar. Tablatures and chords are parodies/interpretations of the original songs. You may use it for private study, scholarship, research or language learning purposes only