» » »

Making Memories Of Us ( Tabs (ver.5)

Artists:  A B C D E F G H I J K L M N O P Q R S T U V W X Y Z # 

Making Memories Of Us ( Tabs (ver.5)

Keith Urban
Rating:
4/5 (5 votes)

Hard to play? Try these video lessons and learn fast.
                (Intro)
-------------------------------------------------------------------------------
                             Making Memories of Us intro
-------------------------------------------------------------------------------

Tuning:E A D G B e

e|---------------------------------------------------------------------------|
B|---------------------------------------------------------------------------|
G|---------4---------------4-----------------------------4-------------------|
D|----4h6-----4---2---4h6-----4---2---1---2\4---2---4h6-----4---2------------|
A|---------------------------------------------------------------------------|
E|---------------------------------------------------------------------------|

e|-----------------------------------0---------------------------------------|
B|-----------------------------------0--0--0-0-0-----------------------------|
G|---------4-------------------------1------------1---1---------1------------|
D|----4h6-----4---2---1---2\4---2------------------------4---4---------------|
A|---------------------------------------------------------------------------|
E|---------------------------------------------------------------------------|

e|----0----------------------------------------------------------------------|
B|----0----------------------------------------------------------------------|
G|----1--1--1-1-1------------------------------------------------------------|
D|-----------------2---2---2-------------------------------------------------|
A|----------------------------0----------------------------------------------|
E|---------------------------------------------------------------------------|

          *Sorry that's all i got so far. I'll try to figure out a more complete version 
(i just don't got the time right now) but i can promise you this is right so far...100% 
it.

| /  slide up
| \  slide down
| h  hammer-on
| p  pull-off
| ~  vibrato
| +  harmonic
| x  Mute note
===============================================================================
            
Hard to play? Try these video lessons and learn fast. | Correct




comments powered by Disqus
↑ Back to top | Tablatures and chords are parodies/interpretations of the original songs. You may use it for private study, scholarship, research or language learning purposes only