» » »

Keith Urban, Making Memories Of Us ( Tabs (ver.3)

Artists:  A B C D E F G H I J K L M N O P Q R S T U V W X Y Z # 

Making Memories Of Us ( Tabs (ver.3)

Keith Urban Tabs
Rating:
4/5 (6 votes)
Making Memories Of Us ( lessons Tabs too difficult? Try these video lessons and learn fast
                ----------------------------------------------------------------------------
                  Making Memories of Us - Keith Urban
----------------------------------------------------------------------------

Tuning: Standard

This is the rythem part of the song that Keith plays in the video. A lot of this songs
and mood comes from actually getting into it. You can hit these notes all you want and
them all right but until you get into the right mood to where you can sit down, close 
eyes, and just feel it running through your hands, it just wont sound right. Enjoy!!

UPDATE::03/28/08:: Update random parts of the song that I thought could have been better.
UPDATE::04/23/08:: Update rest of Guitar 2! Song is complete.

  Guitar 1
e|-------0---------|-------0---------|-----------------|-------0----------|
B|-----------0-----|-----------0-----|-------4---------|---------0--------|
G|-----1-------1---|-----1-------1---|-----4-----4-----|-----2-----2------|
D|---2-----------2-|---2-----------2-|---4---------4---|---2-------------2|
A|-----------------|-----------------|-----------------|-0-----------2h4--|
E|-0---------------|-0---------------|-4-------------4-|------------------|
  Guitar 2
e|-----------------|-----------------|-----------------|------------------|
B|-----------------|-----------------|-----------------|------------------|
G|-----4-----------|-----4-----------|-----------------|------------------|
D|-4/6---4-----2---|-4/6---4-----2---|-1---------2/4---|-2----------------|
A|-----------------|-----------------|-----------------|------------------|
E|-----------------|-----------------|-----------------|------------------|
  Guitar 1
e|-------2-----0---|-------2-----0---|-----------------|------------------|
B|---------------0-|---------------0-|-4-------------4-|-2p0--------------|
G|-----1-----1-----|-----1-----1-----|----4--------4---|-------2----------|
D|---2-------------|---2-------------|-------4---4-----|----------2-----2-|
A|-----------------|-----------------|-----------------|-0----------2h4---|
E|-0---------------|-0---------------|-4-------4-------|------------------|
  Guitar 2
e|-----------------|-----------------|-----------------|------------------|
B|-----------------|-----------------|-----------------|------------------|
G|-----4-----------|-----4-----------|-----------------|------------------|
D|-4/6---4-----2---|-4/6---4-----2---|-1---------2/4---|-2----------------|
A|-----------------|-----------------|-----------------|------------------|
E|-----------------|-----------------|-----------------|------------------|
  Guitar 1
e|-------0---------|-----------------|-----------------|-------0----------|
B|-----------0-----|-------4---------|-------0---------|-----------0------|
G|-----1-------1---|-----4-----4-----|-----1------1----|-----2-------2----|
D|---2-----------2-|---4---------4---|---2----------2--|---2-----------2--|
A|-----------------|-2-------------2-|-----------------|-0----------------|
E|-0---------------|-----------------|-4---------------|------------------|
                                             Slap Slap
e|-------0---------|-------0---------|-----------------|------------------|
B|-------------0---|-------4---------|-------5-x-4-x-2-|-(2)-----2--------|
G|-----1-----------|-----4--------4--|-----6---x---x---|-----------4p2----|
D|---2-------------|---4-------------|---6-----x---x---|-------2-------2--|
A|-----------------|-2---------------|-4-------x-2-x-0-|-(0)-0-----------0|
E|-0---------------|-----------------|-----------------|------------------|

e|-------0---------|-------0---------|-----------------|------------------|
B|-----------0-----|---------4-------|-------0---------|------------0-----|
G|-----1-------1---|-----4-----4-----|-----1-----1-----|-----2-1----------|
D|---2-----------2-|---4---------4---|---2---------2---|---2----------2/4~|
A|-----------------|-2-------------2-|-----------------|-0----------------|
E|-0---------------|-----------------|-4-------------4-|------------------|
                                             Slap Slap
e|-----------------|-----------------|-----------------|------------------|
B|-------0---------|-------4---------|-------5-x-4-x-2-|-(2)--------------|
G|-----1-----1-----|-----4-------4---|-----6---x---x---|-------------2-4--|
D|-------------2---|---4-----------4-|---6-----x---x---|-----2-----2------|
A|---2-------------|-2---------------|-4-------x-2-x-0-|-(0)---2-4--------|
E|-0-------------0-|-----------------|-----------------|------------------|
        Slap              Slap              Slap              Slap
e|-0---------------|-----------0--0--|-----------0--0--|-----------0--0---|
B|-0---------------|-----------0--0--|-----------0--0--|-----------0--0---|
G|-2------x--2--2--|-1------x--1--1--|-1------x--1--1--|-1------x--1--1---|
D|-2------x--2--2--|-2------x--2--2--|-2------x--2--2--|-2------x--2--2---|
A|-0------x--0--0--|-2------x--2--2--|-2------x--2--2--|-2------x--2--2---|
E|-----------------|-0---------0--0--|-0---------0--0--|-0---------0--0---|
        Slap
e|-----------0--0--|-----------------|-------0-------0-|(0)---------------|
B|-0---0-----0--0--|--5---4---4---4--|-----------0-----|------------------|
G|-2------x--2--2--|--6---6---4---4--|-----1-----------|---1---2-1h2p1----|
D|-2------x--2--2--|--6---6---4---4--|---2---------2---|-----2---------2--|
A|-0------x--0--0--|--4---4---2---2--|-----------------|-----------------2|
E|-----------------|-----------------|-0---------------|------------------|

e|-------0---------|-----------------|-----------------|-------0----------|
B|-----------0-----|-------4---------|-------0---------|------------0-----|
G|-----1-------1---|-----4-----4-----|-----1-------1---|-----2--------2---|
D|---2-----------2-|---4---------4---|---2-----------2-|---2------------2-|
A|-----------------|-2-------------2-|-----------------|-0----------------|
E|-0---------------|-----------------|-4---------------|------------------|
                                             Slap Slap
e|-------0---------|-------0---------|-----------------|------------------|
B|-------------0---|-------4---------|-------5-x-4-x-2-|-(2)--------------|
G|-----1-----------|-----4--------4--|-----6---x---x---|-----2---2-------2|
D|---2-------------|---4-------------|---6-----x---x---|-------2---2---2--|
A|-----------------|-2---------------|-4-------x-2-x-0-|-(0)---------0----|
E|-0---------------|-----------------|-----------------|------------------|

e|-------0---------|-------0---------|-----------------|------------------|
B|-----------0-----|---------4-------|-------0---------|-----------0------|
G|-----1-------1---|-----4-----4-----|-----1-------1---|-----2-1----------|
D|---2-----------2-|---4---------4---|---2-----------2-|---2----------2/4~|
A|-----------------|-2-------------2-|-----------------|-0----------------|
E|-0---------------|-----------------|-4---------------|------------------|
                                             Slap Slap
e|-----------------|-----------------|-----------------|------------------|
B|-------0---------|-------4---------|-------5-x-4-x-2-|-(2)--------------|
G|-----1-----1-----|-----4-------4---|-----6---x---x---|-------------2-4--|
D|-------------2---|---4-----------4-|---6-----x---x---|-----2-----2------|
A|---2-----------2-|-2---------------|-4-------x-2-x-0-|-(0)---2-4--------|
E|-0---------------|-----------------|-----------------|------------------|
        Slap              Slap              Slap              Slap
e|-0---------------|-----------0--0--|-----------0--0--|-----------0--0---|
B|-0---------------|-----------0--0--|-----------0--0--|-----------0--0---|
G|-2------x--2--2--|-1------x--1--1--|-1------x--1--1--|-1------x--1--1---|
D|-2------x--2--2--|-2------x--2--2--|-2------x--2--2--|-2------x--2--2---|
A|-0------x--0--0--|-2------x--2--2--|-2------x--2--2--|-2------x--2--2---|
E|-----------------|-0---------0--0--|-0---------0--0--|-0---------0--0---|
        Slap                               Slap
e|-----------0--0--|-----------------|-0--0--x--0----0-|----------------0-|
B|-0---0-----0--0--|--5---5---4---4--|-0--0--x--0----0-|---------0------0-|
G|-2------x--2--2--|--6---6---4---4--|-1--1--x--1----1-|-2p1---1---1----1-|
D|-2------x--2--2--|--6---6---4---4--|-2--2--x--2----2-|-----2-------2--2-|
A|-0------x--0--0--|--4---4---2---2--|-2--2--x--2----2-|----------------2-|
E|-----------------|-----------------|-0--0--x--0----0-|----------------0-|
   *
e|-----------------|-----------------|-0-0-0-0---0-0-0-|------------------|
B|-4---4-4-4-4-4-4-|-5-5-5-5---5-5-5-|-0-0-0-0---0-0-0-|-0---0-0---0-0-0--|
G|-4---4-4-4-4-4-4-|-6-6-6-6---6-6-6-|-2-2-2-2---2-2-2-|-1---1-1---1-1-1--|
D|-4---4-4-4-4-4-4-|-6-6-6-6---6-6-6-|-2-2-2-2---2-2-2-|-2---2-2---2-2-2--|
A|-x---x-x-x-x-x-x-|-4-4-4-4---4-4-4-|-0-0-0-0---0-0-0-|-2---2-2---2-2-2--|
E|-4---4-4-4-4-4-4-|-----------------|-----------------|-0---0-0---0-0-0--|

e|-----------------|-----------------|-0-0-0-0-0-0-0-0-|------------------|
B|-4-4-4-4---4-4-4-|-5---5-5---5-5-5-|-0-0-0-0-0-0-0-0-|------------------|
G|-4-4-4-4---4-4-4-|-6---6-6---6-6-6-|-2-2-2-2-2-2-2-2-|--------4-------4-|
D|-4-4-4-4---4-4-4-|-6---6-6---6-6-6-|-2-2-2-2-2-2-2-2-|------4-------4---|
A|-x-x-x-x---x-x-x-|-4---4-4---4-4-4-|-0-0-0-0-0-0-0-0-|-2----------2-----|
E|-4-4-4-4---4-4-4-|-----------------|-----------------|------------------|

e|-----------------|-------0---------|-----------------|------------------|
B|-----------------|-----------0-----|------4----------|-------0----------|
G|-----4-----------|-----1-------1---|----4-----4------|-----1------------|
D|---4---4-------2-|---2-----------2-|--4---------4----|---2--------------|
A|-2---------2h4---|-----------------|2-------------2p0|------------------|
E|---------2-------|-0---------------|-----------------|-4----------------|

e|-------0---------|-----------------|-----------------|------------------|
B|-------0---0-----|------0----------|-------4---------|-------5-x-4-x-2--|
G|-----2-------2---|----1-----1------|-----4-------4---|-----6---x---x----|
D|---2-----------2-|--2---------2----|---4-------4---4-|---6-----x---x----|
A|-0---------------|-----------------|-2---------------|-4-------x-2-x-0--|
E|-----------------|0-------------2h4|-----------------|------------------|

e|-----------------|-------0---------|-------0---------|------------------|
B|----0------------|-----------0-----|---------4-------|-------0----------|
G|------2h4p2------|-----1-------1---|-----4-----4-----|-----1------1-----|
D|--2---------4-2--|---2-----------2-|---4---------4---|---2----------2---|
A|0----------------|-----------------|-2-------------2-|------------------|
E|-----------------|-0---------------|-----------------|-4----------------|
                                                               Slap Slap
e|-----------------|-----------------|-----------------|------------------|
B|-5h7/9--9~~--5p0-|-------0---------|-------4---------|-------5-x-4-x-2--|
G|-----------------|-----1-----1-----|-----4-----4-----|-----6---x---x----|
D|-----------------|-------------2---|---4---------4---|---6-----x---x----|
A|-0---------------|---2-----------2-|-2-------------2-|-4-------x-2-x-0--|
E|-----------------|-0---------------|-----------------|------------------|
                         Slap              Slap              Slap
e|-----------------|-0---------------|----------0--0-0-|-0----------------|
B|(2)--------------|-0---------------|-------x--0--0-0-|-0----------------|
G|------------2-4--|-2-----x--2--2-2-|-1-----x--1--1-1-|-2------x--2--2-2-|
D|----2-----2------|-2-----x--2--2-2-|-2-----x--2--2-2-|-2------x--2--2-2-|
A|(0)---2-4--------|-0-----x--0--0-0-|-2-----x--2--2-2-|-0------x--0--2-0-|
E|-----------------|-----------------|-0--------0--0-0-|------------------|
       Slap               Slap
e|----------0--0-0-|-----------------|-----------------|-------0----------|
B|-------x--0--0-0-|-0--0---x---0--0-|--6---6----------|---------0--------|
G|-1-----x--1--1-1-|-2------x---2--2-|--5---5-------4--|-----1-----1------|
D|-2-----x--2--2-2-|-2------x---2--2-|--5---5-----4----|-------------2----|
A|-2-----x--2--2-2-|-0------x---0--0-|--4---4---2------|---2-----------2--|
E|-0--------0--0-0-|-----------------|-----------------|-0----------------|
        Slap              Slap              Slap              Slap
e|-0---------------|----------0--0-0-|-0---------------|----------0--0-0--|
B|-0---------------|----------0--0-0-|-0---------------|----------0--0-0--|
G|-2-----x--2--2-2-|-1-----x--1--1-1-|-2-----x--2--2-2-|-1-----x--1--1-1--|
D|-2-----x--2--2-2-|-2-----x--2--2-2-|-2-----x--2--2-2-|-2-----x--2--2-2--|
A|-0-----x--0--0-0-|-2-----x--2--2-2-|-0-----x--0--0-0-|-2-----x--2--2-2--|
E|-----------------|-0--------0--0-0-|-----------------|-0--------0--0-0--|
        Slap
e|-----------------|-----------------|-------0---------|-------0----------|
B|-0-0---x--0--0-0-|--6---6---4---4--|-----------0-----|-----------0------|
G|-2-----x--2--2-2-|--5---5---4---4--|-----1-------1---|-----1-------1----|
D|-2-----x--2--2-2-|--5---5---4---4--|---2-----------2-|---2-----------2--|
A|-0-----x--0--0-0-|--4---4---2---2--|-----------------|------------------|
E|-----------------|-----------------|-0---------------|-0----------------|
                                       Guitar 2
                                    e|-----------------|------------------|
                                    B|-----------------|------------------|
                                    G|-----4-----------|-----4------------|
                                    D|-4/6---4-----2---|-4/6---4-----4----|
                                    A|-----------------|------------------|
                                    E|-----------------|------------------|
  Guitar 1
e|-----------------|-----------------|-------2-----0---|-------2-----0----|
B|-------4---------|-9-7-------------|---------------0-|---------------0--|
G|-----4------4----|-----9-8-6-------|-----1-----1-----|-----1-----1------|
D|---4----------4--|-----------9-7-6-|---2-------------|---2--------------|
A|-----------------|-----------------|-----------------|------------------|
E|-4---------------|-----------------|-0---------------|-0----------------|
  Guitar 2
e|-----------------|-----------------|-----------------|------------------|
B|-----------------|-----------------|-----------------|------------------|
G|-----------------|-----------------|-----4-----------|-----4------------|
D|-1---------2/4---|-----------------|-4/6---4-----2---|-4/6---4-----2----|
A|-----------------|-----------------|-----------------|------------------|
E|-----------------|-----------------|-----------------|------------------|
  Guitar 1
  Slow Rythem Down                    Slow Strum
e|-----------------|-----------------|------0-----------|
B|-4-----------4---|-2---------------|-----0------------|
G|---4-------4---4-|---2-------------|----1-------------|
D|-----4---4-------|-----2---2/4-4/6^|---4--------------|
A|-----------------|-0-----0---------|--2---------------|
E|-4-----4---------|-----------------|-0----------------|

(#)- hold note(s)
/  - slide up
\  - slide down
h  - hammer-on
p  - pull-off
^  - bend note up
x  - mute note or slap
===========================================================================
            

comments powered by Disqus
↑ Back to top | Keith Urban Tabs for Making Memories Of Us (. Lyrics for acoustic guitar and electric guitar. Tablatures and chords are parodies/interpretations of the original songs. You may use it for private study, scholarship, research or language learning purposes only