>
 >
Making Memories Of Us

Making Memories Of Us Guitar Tabs

Keith Urban - Making Memories Of Us chords, tabs, tablatures, lyrics

Guitar lessons | Add/correct | Request | Top 50 tabs Artists:  A B C D E F G H I J K L M N O P Q R S T U V W X Y Z 0-9

Making Memories Of Us Guitar Tabs – Keith Urban

CD, Sheet music, Poster

Do you like Making Memories Of Us? Share with your friends now
ChordsChords v2Chords v3Chords v4Chords v5TabsTabs v2Tabs v3Ukulele
Intro
E----------------------------------------------------|
B----------------------------------------------------|
G-----4-------------------4--------------------------|
D--4h6-----4--2-----4h6-----4---2----1~--2-2h4--2----|
A----------------------------------------------------|
E----------------------------------------------------|

E---------------------------------------------------------------|
B---------------------------------------------------------------|
G---------4----------------4------------------------------------|
D--4h6------4--2------4h6---4--2---1~--2-2h4--2(ring)-----------|
A---------------------------------------------------------------|
E---------------------------------------------------------------|

0:16-0:19 (after intro)
E----------------------------|
B-----2--0-------------------|
G-------------2--------------|
D----------------2-----------|
A----------------------------|
E----------------------------|

         0:35   (after the walk-down)
E-------------------------------------------------------------|
B---0h2p0-----------------------------------------------------|
G------------2------------------------------------------------|
D---------------4---2---0h2 -- into the E chord---------------|
A-------------------------------------------------------------|
E ------------------------------------------------------------|

      0:54-0:56 (verse into Chorus)
E------------------------------------------------|
B------------------------------------------------|
G-------------------2-- Into A chord-------------|
D-----------2--4---------------------------------|
A---2h4------------------------------------------|
E -----------------------------------------------|

 1:11-1:14 (Chorus into Verse)
E----------------------------|
B----------------------------|
G--1--2-2h4------------------|
D-----------4--2-------------|
A----------------------------|
E ---------------------------|

      1:49-1:52 (Verse into Chorus)
E------------------------------------------------|
B------------------------------------------------|
G-------------------2------- Into A chord--------|
D-----------2--4---------------------------------|
A---2h4------------------------------------------|
E -----------------------------------------------|

 2:21-2:24 (in the mid. Of the bridge)
E--------------------------------|
B-----3/5------------------------|
G-----------7-5------------------|    I know this is close but any
D----------------5--7------------|    suggestions??
A--------------------------------|
E--------------------------------|

       2:46-2:49 (after walk-down)
E------------------------------------------------------------|
B---0h2p0----------------------------------------------------|
G------------2-----------------------------------------------|
D---------------4---2---0h2 --- into the E chord-------------|
A------------------------------------------------------------|
E -----------------------------------------------------------|

   2:55
E-------------------------------------------|
B---5/7--9-9b--5--- into E chord------------|
G-------------------------------------------|
D-------------------------------------------|
A-------------------------------------------|
E ------------------------------------------|

3:05-3:07
E------------------------------------------------|
B------------------------------------------------|
G-------------------2---- Into A chord-----------|
D-----------2--4---------------------------------|
A---2h4------------------------------------------|
E -----------------------------------------------|

    3:21-3:24
E----------------------------------------------|
B----9b------7--------5------------------------|
G---------9-------7----------------------------|
D----------------------------7--5--7~----------|
A----------------------------------------------|
E ---------------------------------------------|

  3:25-3:32
E-----5-------5---7---9b----------------------(4)--(2)-(0)(0)-------------|
B---------9-----------------5------------------9----7---5--5--------------|
G-------------------------------------------------------------------------|
D-------------------------------------------------------------------------|
A-------------------------------------------------------------------------|
E ------------------------------------------------------------------------|
( u  can play the stuff in brackets instead,
 of the line above. I donít suggest u play
  them at the same time tho)

Outro: 3:36-4:11
E---------------------------------------------------|
B---------------------------------------------------|
G--------4-------------------4----------------------|
D--4h6-----4--2-----4h6-----4---2----1~--2-2h4--2---|
A---------------------------------------------------|
E---------------------------------------------------|

E-------------------------------------------------------------------------0---|
B-------------------------------------------------------------------------0---|
G------------------4------------------4-----------------------------------1---|
D---4h6------4--2------4h6--------4--2---1~--2h4--6---------------------2-----|
A-------------------------------------------------------------------------2---|
E------------------------------------------------------------------------0----|





Comments


Popular Keith Urban tabs & chords
Hit The Ground Runnin Chords
Live To Love Another Day (correct Intro) Chords
Once In A Lifetime Love Chords
Whenever I Run 2 Chords
Your Everything 2 Chords
Don't Shut Me Out Tabs
God Made Women Intro Tabs
Making Memories Of Us Intro 1 Tabs
You'll Think Of Me (perfect Intro) Tabs
Youll Think Of Me Live Acoustic Intro Tabs


Song lyrics



↑ Back to top | Tablatures and chords are parodies/interpretations of the original songs. You may use it for private study, scholarship, research or language learning purposes only
© 2014 AZChords.com Contact us | Privacy policy | DMCA | Add/correct tabs | Request tabs | Top 50 tabs