>
 >
Long Hot Summer 1

Long Hot Summer 1 Guitar Tabs

Keith Urban - Long Hot Summer 1 chords, tabs, tablatures, lyrics

Guitar lessons | Add/correct | Request | Top 50 tabs Artists:  A B C D E F G H I J K L M N O P Q R S T U V W X Y Z 0-9

Long Hot Summer 1 Guitar Tabs – Keith Urban

CD, Sheet music, Poster

Do you like Long Hot Summer 1? Share with your friends now
ChordsTabsTabs v2Tabs v3Tabs v4Ukulele
Keith Urban - Long Hot Summer
Get Closer (2010)



Capo I
(All notes are written as the actual fret, not fret in relation to capo.  
5th fret means 5th fret, 0 means open which is actually first fret)


Not sure if the chords are the voicings Keith uses.

Opening riff:


  Bm            G           D              A
e|------------|-----------|--------------|-------------|
B|------------|----4------|------4p3-----|-------------|
G|------------|-------0---|----3---------|-------3-----|
D|-------5----|-----------|-0------------|----3--------|
A|----5-------|-----------|----------(0)-|-0--------0--|
E|-3--------4-|-4---------|--------------|-------------|


Repeat during verse parts




chorus:

G  |  D  |  A  |   Bm   A

G  |  D  |  A  |   A

G  |  D  |  A  |   Bm   

The fast part after the chorus:
D/F#    G     G



Bridge:

C  |   Em   |   A    |   A

C  |   G    |   Em7


That's it for the rhythm guitar part.  Listen to the song to piece them together


For those interested in the fills and solos


Chorus fills:

  #1                #2
e|----------------|----------------------------------|
B|----------------|----------------------------------|
G|----------------|---/8-7-5-3-----------------------|
D|-5/8\5--3/5\3---|----------------------------------|
A|-3/6\3--0/2\0---|----------------------------------|
E|----------------|----------------------------------|




Verse #2 Fills:

   #1  -  Swell Volume knob
e|--------------------------------------------------|
B|--------------------------------------------------|
G|--12-----12----10-----8----7----------------------|
D|--------------------------------------------------|
A|--------------------------------------------------|
E|--------------------------------------------------|

  #2
e|--------------------------------------------------|
B|--------------------------------------------------|
G|-------8-10-10b11--11\10---8--10------------------|
D|---/10----------------------------8--8/10---------|
A|--------------------------------------------------|
E|--------------------------------------------------|

  #3
e|-------------11-----------------------------------|
B|---11b13hold----^13-^13~~~~-----------------------|
G|--------------------------------------------------|
D|--------------------------------------------------|
A|--------------------------------------------------|
E|--------------------------------------------------|

   #4
e|--------------------------------------------------|
B|--------------------------------------------------|
G|----pb11^10--8--10---8----------------------------|
D|-------------------------10~~---------------------|
A|--------------------------------------------------|
E|--------------------------------------------------|



Solo:
e|--8/11\8----8~------------------------------------------------------|
B|---------11------8/11\8----8~-------8h11-11/13--11~----11/13--11~~--|
G|------------------------10-----8h10-----------------10--------------|
D|--------------------------------------------------------------------|
A|--------------------------------------------------------------------|
E|--------------------------------------------------------------------|


e|--8/11\8----8~----------------------------8------10-----11--------------|
B|---------11------8/11\8----8~-------8h11--11b13--13b15--16b18b16~~~~~~~-|
G|------------------------10-----8h10-------------------------------------|
D|------------------------------------------------------------------------|
A|------------------------------------------------------------------------|
E|------------------------------------------------------------------------|



I tried to break up the solo into small chunks.

Outro Fills/Solo:
  3:21
e|--------------------------------------------------|
B|--------------------------------------------------|
G|------pb11^10--8~~--------------------------------|
D|--------------------------------------------------|
A|--------------------------------------------------|
E|--------------------------------------------------|

   3:26
e|---8---------------------------------------------|
B|---x---11~~~-------------------------------------|
G|---x---------------------------------------------|
D|---x---------------------------------------------|
A|-------------------------------------------------|
E|-------------------------------------------------|

   3:29
e|--8------------8----------------------------------|
B|----11b13hold----^13^11-11-11--10b11--8~~---------|
G|--------------------------------------------------|
D|--------------------------------------------------|
A|--------------------------------------------------|
E|--------------------------------------------------|

   3:39
e|---------11---------------------------------------|
B|------11-----/16~~~-------------------------------|
G|--/12---------------------------------------------|
D|--------------------------------------------------|
A|--------------------------------------------------|
E|--------------------------------------------------|

  3:41
e|-------------------------------------------------------------|
B|--13b15rb13--11--13b15rb13--13--11~~------11h13-11-11~~------|
G|--------------------------------------12---------------------|
D|-------------------------------------------------------------|
A|-------------------------------------------------------------|
E|-------------------------------------------------------------|

   3:50
e|-----------------------------------------------------------|
B|--18b20hold 20-20-20rb18-16-16-----16h18-------------------|
G|--------------------------------19-------17b19rb17--15~~---|
D|-----------------------------------------------------------|
A|-----------------------------------------------------------|
E|-----------------------------------------------------------|

    3:55
e|-------------------------------16-15h16p15-------------------------|
B|---16------18------16------18---------------16-15b16-16-15--13-----|
G|-------15------15------15------------------------------------------|
D|-------------------------------------------------------------------|
A|-------------------------------------------------------------------|
E|-------------------------------------------------------------------|

    3:58
e|--------------------------------------------------|
B|--(13)--16---11---13---8--11----------------------|
G|------------------------------8-------------------|
D|--------------------------------------------------|
A|--------------------------------------------------|
E|--------------------------------------------------|


e|--------------------------------------------------|
B|-8-----8--8--8--8----9--10--11--------------------|
G|-10h12-12-12-12-12----------13b15--10b12rb10--8~~-|
D|--------------------------------------------------|
A|--------------------------------------------------|
E|--------------------------------------------------|





Comments


Popular Keith Urban tabs & chords
Days Go By 1 Chords
If You Wanna Stay Chords
Raise The Barn Chords
Your Everything 1 Chords
But For The Grace Of God (live) Tabs
Homespun Love Tabs
Raining On Sunday Acoustic Extremely Accurate Tabs
Til Summer Comes Around 3 Tabs
Song For Dad Ukulele
You Gonna Fly Ukulele


Song lyrics



↑ Back to top | Tablatures and chords are parodies/interpretations of the original songs. You may use it for private study, scholarship, research or language learning purposes only
© 2014 AZChords.com Contact us | Privacy policy | DMCA | Add/correct tabs | Request tabs | Top 50 tabs