» » »

Long Hot Summer Tabs (ver.1)

Artists:  A B C D E F G H I J K L M N O P Q R S T U V W X Y Z # 

Long Hot Summer Tabs (ver.1)

Keith Urban
Rating:
4/5 (4 votes)

Hard to play? Try these video lessons and learn fast.
                this song is in an interesting time. i don't know what it is, but listen to the song a 
lot to find the pattern. the chord changes seem fast and difficult, but you'll get it eventually. 

and i accidentally wrote the intro UPSIDE down, just beware 

notes relative to Capo 1

INTRO and VERSE:

Chords Bm--> G--> D--> A

E---2-----------3---------------------|
a-------------------------------------|
d-----4---4---------------------------|
g-------4-----------0-----------2-----|
b-----------------3---------3p2-------|
e-------------------------------------|

CHORUS:

chords G--> D--> A--> Bm

(play both riffs when the Bm chord is played)

RIFF #1
E-----------------|
A---2/4-----------|
D---4/6----2h4p2--|
G-----------------|
B-----------------|
e-----------------|

RIFF #2
E-----------------|
A-----------------|
D-----------------|
G----3/7-6-4-2----|
B-----------------|
e-----------------|

SOLO

chords: G--> A

e|--7/10\7----7~------------------------------------------------------|
B|---------10------7/10\7----7~-------7h10-10/12--10~----10/12--10~~--|
G|------------------------9-----7h9-----------------9-----------------|
D|--------------------------------------------------------------------|
A|--------------------------------------------------------------------|
E|--------------------------------------------------------------------|


e|--7/10\7----7~--------------------------------7----9----11--------------|
B|---------10------7/10\7----7~-----------7h10--10b--12b--16b18b16~~~~~~~-|
G|-------------------------9---7h9----------------------------------------|
D|------------------------------------------------------------------------|
A|------------------------------------------------------------------------|
E|------------------------------------------------------------------------|

that's all thats really important.
            
Hard to play? Try these video lessons and learn fast. | Correct




comments powered by Disqus
↑ Back to top | Tablatures and chords are parodies/interpretations of the original songs. You may use it for private study, scholarship, research or language learning purposes only