» » »

Kiss A Girl Tabs (ver.5)

Artists:  A B C D E F G H I J K L M N O P Q R S T U V W X Y Z # 

Kiss A Girl Tabs (ver.5)

Keith Urban
Rating:
0/5 (0 votes)

Hard to play? Try these video lessons and learn fast.
                this sounds best with light distortion.

intro                                                          2nd time playing intro
e|--------------------------------------------------------------|---10\--|
B|---------------------------------------2----------------2-----|---10\--|
G|-7-7-7-7-7-7/--6-6-6-6-6-6/--4-4-4-4-4-2-2/4--4-4-4-4-4-2-----|--------|
D|-7-7-7-7-7-7/--7-7-7-7-7-7/--4-4-4-4-4-2------4-4-4-4-4-2-----|--------|
A|-5-5-5-5-5-5/--5-5-5-5-5-5/--5-5-5-5-5--------5-5-5-5-5----6\-|--------|
E|-----------------------------------------------------------6\-|--------|

verse                                                  pre-chorus  G
e|---------------------------------------------------------|-------3---|x2
B|-----------------------------------2------------2--------|-3p2---0---|
G|-x-x-x-x-7-6--x-x-x-x-6-4--x-x-x-x-2-4--x-x-x-x-2-4------|-----2-0---|
D|-x-x-x-x-7-7--x-x-x-x-7-4--x-x-x-x-2-4--x-x-x-x-2-4------|-------0---|
A|-x-x-x-x-5-5--x-x-x-x-5-5--x-x-x-x---5--x-x-x-x---5------|-------2---|
E|---------------------------------------------------------|-------3---|

chorus
D
I wanna kiss a girl
A
I wanna hold her tight
G
And maybe make a little magic in the moonlight
D
Don't wanna go too far
A                  B
Just to take it slow
G
But I shouldn't be lonely in this big ol' world
e|--------------3-|
B|-3p2----------0-|
G|-----2--------0-|
D|-------2p0----0-|
A|-----------4--2-|
E|--------------3-|
I wanna kiss a girl

intro
verse
chorus

Solo
e|--9/10--9-7-5--3/5--3-2-0---------------------------------------------|
B|---------------------------3--5/7-7bh--7-8/10-10-14-15/17-15-17-17/19-|
G|----------------------------------------------------------------------|
D|----------------------------------------------------------------------|
A|----------------------------------------------------------------------|
E|----------------------------------------------------------------------|

e|------------------------------------14-12----------------------------|
B|--19b-19-17\15--15/22-22-22-22-22\--------14-12-11-------------------|
G|---------------------------------------------------11/13-12-10-------|
D|---------------------------------------------------------------------|
A|----------------------------------------------------------------x-12\|
E|----------------------------------------------------------------x-12\|

chorus
intro to fade
            
Hard to play? Try these video lessons and learn fast. | Correct




comments powered by Disqus
↑ Back to top | Tablatures and chords are parodies/interpretations of the original songs. You may use it for private study, scholarship, research or language learning purposes only