» » »

Kiss A Girl Tabs (ver.4)

Artists:  A B C D E F G H I J K L M N O P Q R S T U V W X Y Z # 

Kiss A Girl Tabs (ver.4)

Keith Urban
Rating:
0/5 (0 votes)

Hard to play? Try these video lessons and learn fast.
                Legend
b bend
h hammer on
p pulloff
x palm mute
/ slide
v vibrato
o repeat

standard tuning

intro:
                                                                       2xs
||----------------------|--------------------|--------------------------||
||o---------------------|--------------------|-------------------------o||
||---7----7---7--9/11---|--6----6----6--7/9--|-4---4---4-2--4---4--4-2--||
||---7----7---7---------|--7----7----7-------|-5---5---5-0--5---5--5-0--||
||o--5--5---5-----------|--7--7----7---------|-5--5--5------5--5--5----o||
||----------------------|--------------------|--------------------------||


verse 1
                                                        2xs
||-------------------------------------------------------||
||o-----------------------------------------------------o||
||---7/-----------7--6----------6--4-----6--4-------4----||
||---7/-----------7--7----------7--5-----7--5-------5----||
||o--5/-----------5--7----------7--5-----7--5-------5---o||
||-------------------5----------5--3-----5--3-------3----||


pre chorus:
                        2xs
||------------------3---||
||o--3---3p2--------0--o||
||---2-------2------0---||
||---0---------0----0---||
||o-----------------2--o||
||------------------3---||


chorus:
     D            A               G                2xs
||---2------------0---------------3----------------||
||o--3------------2---------------0---------------o||
||---2------------2---------------0----------------||
||---0------------2---------------0----------------||
||o---------------0---------------2---------------o||
||----------------x---------------3----------------||

play intro then when enterin verse 2 strum this

|-10---------|
|-10---------|
|------------|
|------------|
|------------|
|------------|

then continue with verse just like verse 1 and pre chorus is the same too then go into 
chorus and when u get to the part before the solo just alternate the chords G and A until 
get to the solo shown below

solo:

||--9b--9--7--------------------------------------------------------|
||-----------9b-----9b--9--7---5---3--5-5b-5b--3-----5/7--8--8/10---|
||------------------------------------------------------------------|
||------------------------------------------------------------------|
||------------------------------------------------------------------|
||------------------------------------------------------------------|

----------------------------------------------12/17-----------------||
-----10/14--15--15/17--15-17--17b-17b--15---------------13/15/13/10-||
--------------------------------------------------------------------||
--------------------------------------------------------------------||
--------------------------------------------------------------------||
--------------------------------------------------------------------||


after you finish playing the solo play the pre chorus then chorus then end with the 
until the song comes to a stop.
            
Hard to play? Try these video lessons and learn fast. | Correct




comments powered by Disqus
↑ Back to top | Tablatures and chords are parodies/interpretations of the original songs. You may use it for private study, scholarship, research or language learning purposes only