>
 >
I Wanna Love Somebody Like You

I Wanna Love Somebody Like You Guitar Tabs

Keith Urban - I Wanna Love Somebody Like You chords, tabs, tablatures, lyrics

Guitar lessons | Add/correct | Request | Top 50 tabs Artists:  A B C D E F G H I J K L M N O P Q R S T U V W X Y Z 0-9

I Wanna Love Somebody Like You Guitar Tabs – Keith Urban

CD, Sheet music, Poster

Do you like I Wanna Love Somebody Like You? Share with your friends now
ChordsTabsUkulele
I wanna Love somebody Like You- Keith Urban



Tuning:standard

Intro (banjo transcribed for guitar 1)
e|-------------------------------------------|
B|------------7--7--7/9--9h10-10-------------|
G|---8h9-9-9-9--9-9----9-----9--9------------| 2x
D|-------------------------------------------|
A|-------------------------------------------|
E|-------------------------------------------|

then guitar 2 slides in (0:11)

e|------0-----------------|
B|------0-----------------|
G|------1-----------------|
D|------2-----------------|
A|------2-----------------|
E|---12\0-----------------|


Verse 1 (rhythm)

Play each chord in a triplet pattern, palm muted, the number of times indicated, if you 
dont understand this, listen to the song for the pattern

e|------------------------------------------------------------------------|
B|------------------------------------------------------------------------|
G|---------2-------------4---------2--------------------------------------|
D|--2------2-x8--2-------4--4x-----2--4x---2------------------------------|
A|--2-x16--0-----2-x4----2---------0-------2------------------------------|
E|--0------------0-------------------------0------------------------------|


Fill 1 (0:34)
e|-----------|   -------<12>-|
B|-----------|   ---<12>-----|
G|-----------|   ------------|
D|-----------|   ------------|  either one of these works, i like the sound
A|------<5>--|   ------------|  of the twelfth fret better
E|---<5>-----|   ------------|



Verse 1 part 2

Guitar 2 continues with pattern from first half of verse

Guitar 1
e|---0-----0-0---0----------------------0-----0-------0-----0------------|
B|---0-----0-0---0---------------/9~~---0-----0-------0-----0------------|
G|---1-----1-1---1--------------(/9)----1-----4-------2-----1------------|
D|---2-----------2----------------------2-----4-------2-----2------------|
A|---2-----------2----------------------2-----2-------0-----2------------|
E|---0-----------0----------------------0-------------------0------------|

Let the last four chords ring until they switch



Chorus (turn on light distortion)

guitar 2

e|--0-----0-----0------0---0------4----2------------------------------|
B|--0-----0-----0------0---0------5----2------------------------------|
G|--2-----2-----1------2---2------6----2------------------------------|
D|--2-----2-----2------2---2------6----4------------------------------|
A|--0-----0-----2------0---0------4----4------------------------------|
E|--------------0----------------------2------------------------------|


Guitar 1
Chorus Fill 1 (1:18, after guitar 2 strums the first e chord in the chorus)

e|-------------------------------------------|
B|-------------------------------------------|
G|----13-13-13\11-11-11-11\9-9-9-9-----------|
D|----14-14-14\11-11-11-11\9-9-9-9-----------|
A|----12-12-12\9--9--9--9\-7-7-7-7-----------|
E|-------------------------------------------|

Chorus fill 2 (1:30, after the F#m at the end of the chorus)
e|--2---------|
B|----2-------|
G|------2/4---|
D|------------|
A|------------|
E|------------|


Verse 2

Guitar 2 continues same triplet pattern and chords as verse 1, no distortion, palm muted

e|------------------------------------------------------------------------|
B|------------------------------------------------------------------------|
G|---------2-------------4---------2--------------------------------------|
D|--2------2-x8--2-------4--4x-----2--4x---2------------------------------|
A|--2-x16--0-----2-x4----2---------0-------2------------------------------|
E|--0------------0-------------------------0------------------------------|



Guitar 1 Keeps light distortion

Verse fill 2 (1:35)
e|---2-------|
B|-----5-----|
G|-------(4)-| let them ring
D|-----------|
A|-----------|
E|-----------|


Verse fill 2 (1:39)
e|----4--5--7-------|
B|----5--5--5-------|
G|---/4-------------|
D|------------------|  keep the 4 on the g ringing while you play the other
A|------------------|  variations of the chord
E|------------------|


Verse fill 3 (1:46)
e|-------<12>-|
B|---<12>-----|
G|------------|
D|------------|
A|------------|
E|------------|


Solo
Guitar 2 plays the verse chords, but strums them



Solo (guitar 1 at 1:57)

e|--------7----7------------------------------|
B|--------7b9--7b9--7b9r7-5---5h7--5~~--------|
G|--------------------------6-----------------|
D|--------------------------------------------|  2x
A|--------------------------------------------|
E|---12\0-------------------------------------|

e|-/12-12-12--12-12\11-11-11\9-9-9\7-7-7\5-5-5\4-4-4\2-2-2-0---------------|
B|-------------------------------------------------------------------------|
G|-------------------------------------------------------------------------|
D|-------------------------------------------------------------------------|
A|-------------------------------------------------------------------------|
E|-------------------------------------------------------------------------|

e|-------------------------------------------------------------------------|
B|-------------------------------------------------------------------------|
G|-------------------------------------------------------------------------|
D|--4b6-6r4-2--4-2-------4-----4-4-----------------------------1/9-x-x-----|
A|------------4-------5b6---5b6---4b6r4-2-2-----------1/7-x-x--------------|
E|---------------------------------------4----1/7-x-x----------------------|

e|--------------------------------------------------------------------------|
B|-----5----------------17-17 15b17-----------------------------------------|
G|--/6---4b6~~~r4--4/16-----------------------------------------------------|
D|--------------------------------------------------------------------------|
A|--------------------------------------------------------------------------|
E|--------------------------------------------------------------------------|


 Chorus 2
Same as chorus one, except guitar 1 doesn't play fill 2


bridge has no guitar at first, until it slowly comes in, first chord is at 2:57, in palm 
muted triplets

e|--0-------------------------------------------------|
B|--0-------------------------------------------------|
G|--1---4-----2-------------4-----2----------4----2-2-|
D|--2---4-x4--2-4x--2-------4-x4--2--4x--2---4----2-2-|
A|--2---2-----0-----2-8x----2-----0------2---2----0-0-|
E|--0---------------0--------------------0------------|



Solo 2 (guitar 2 just plays an E chord periodically)

e|--7/12-12--7/14-14--7/16-16--17-16p14--14----|
B|-------------------------------------17--17--|
G|---------------------------------------------|
D|---------------------------------------------|
A|---------------------------------------------|
E|---------------------------------------------|

e|--7/12-12--7/14-14--7/16-16--17-16p14--14---17b19-|
B|-------------------------------------17--17-------|
G|--------------------------------------------------|
D|--------------------------------------------------|
A|--------------------------------------------------|
E|--------------------------------------------------|

e|--7/12-12--7/14-14--7/16-16--17-16p14--14----|
B|-------------------------------------17--17--|
G|---------------------------------------------|
D|---------------------------------------------|
A|---------------------------------------------|
E|---------------------------------------------|

e|--7/12-12--7/14-14--7/16-16--17-16-14--14b16r----|
B|-------------------------------------17------17--|
G|-------------------------------------------------|
D|-------------------------------------------------|
A|-------------------------------------------------|
E|-------------------------------------------------|


2nd bridge solo (3:57, quietly, increase volume slowly)

e|--12\11\9--------(9)-----------------------------------------------------|
B|-----------12~~~-(12)---/9~~~\5~~~-0--4b5r4--2--0-----2-4-5-7/9-7~~~-----|
G|-----------------(9)-----------------------------------------------------|
D|--------------------------------------------------/6---------------------|
A|-------------------------------------------------------------------------|
E|-------------------------------------------------------------------------|

e|--------------------------------------------------------------------------|
B|--7b9-5-7---------5-5-7b8r7-7----7b8r7-5----------------------------------|
G|----------6~~~-/6------------------------7-4------------------------------|
D|---------------------------------------------7-5--------------------------|
A|-------------------------------------------------7------------------------|
E|--------------------------------------------------------------------------|


Outro verse
e|-0---0---------------0---0-----9--9-------------------------------|
B|-0---0----3-3--0-----0---0-7b9hold-----9r7-5-5h7p5----------------|
G|-1---1----2-2---2p0--1----------------------6---------------------|
D|-2--------0-0--------2--------------------------------------------|
A|-2-------------------2--------------------------------------------|
E|-0-------------------0--------------------------------------------|

e|--0---0------------0---0----------------0--0-------------0--0-|
B|--0---0------------0---0------2-2-2-----0--0-------------0--0-|
G|--1---1------------1---1----/4-----4-4--1--1-------------1--1-|
D|--2----------2-----2--------------------2---------2------2----|
A|--2-------2h4--4\2-2--------------------2------2h4--4p2--2----|
E|--0----------------0--------------------0----------------0----|

Outro solo

Guitar 2 plays the E periodically, this section is almost exactly the same as solo 2

Guitar 1 (4:54)
e|--7/12-12--7/14-14--7/16-16--17-16p14--14----|
B|-------------------------------------17--17--|
G|---------------------------------------------|
D|---------------------------------------------|
A|---------------------------------------------|
E|---------------------------------------------|

e|--7/12-12--7/14-14--7/16-16--17-16p14--14---17b19-|
B|-------------------------------------17--17-------|
G|--------------------------------------------------|
D|--------------------------------------------------|
A|--------------------------------------------------|
E|--------------------------------------------------|

e|--7/12-12--7/14-14--7/16-16--17-16p14--14----|
B|-------------------------------------17--17--|
G|---------------------------------------------|
D|---------------------------------------------|
A|---------------------------------------------|
E|---------------------------------------------|

e|------19---------19---------19---------19----|
B|-19b21hold--19b21hold--19b21hold--19b21hold--|
G|---------------------------------------------| continue repeating this
D|---------------------------------------------|  and fade out
A|---------------------------------------------|
E|---------------------------------------------|


************************************

| /   slide up
| \   slide down
| h   hammer-on
| p   pull-off
| ~   vibrato
| <>   harmonic
| x   Mute note
| b   Bend
| pb  Pre-bend
| br  Bend release
| pbr Pre-bend release
| brb Bend release bend

************************************





Comments


Popular Keith Urban tabs & chords
Days Go By Chords
Making Memories Of Us 3 Chords
Somebody Like You Chords
You Look Good In My Shirt Chords
Kiss A Girl 1 Tabs
Making Memories Of Us (capo) Tabs
Raining On Sunday (bass Tab) Tabs
You're My Better Half 1 Tabs
You're Not Alone Tonight 1 Tabs
Youll Remember Me Live Intro Tabs


Song lyrics



↑ Back to top | Tablatures and chords are parodies/interpretations of the original songs. You may use it for private study, scholarship, research or language learning purposes only
© 2014 AZChords.com Contact us | Privacy policy | DMCA | Add/correct tabs | Request tabs | Top 50 tabs