>
 >
I Cant Stop Loving You

I Cant Stop Loving You Guitar Tabs

Keith Urban - I Cant Stop Loving You chords, tabs, tablatures, lyrics

Guitar lessons | Add/correct | Request | Top 50 tabs Artists:  A B C D E F G H I J K L M N O P Q R S T U V W X Y Z 0-9

I Cant Stop Loving You Guitar Tabs – Keith Urban

CD, Sheet music, Poster

Do you like I Cant Stop Loving You? Share with your friends now
TabsUkulele
E---------------------------------------------------------|
B-----------------5---------------------------------------|
G-6b(8)-4-6-6b(8)---(8)r6-4---------4-6-6b(8)b(9)-(8)r6-4-|
D-------------------------------4-6-----------------------|
A---------------------------4h6---------------------------|
E---------------------------------------------------------|


E---------------------------------------------------------|
B---------------------------------------------------------|
G-4h6---------------------------------------4-------------|
D-----6-4-6-----------------------------------2-4-2b(4)r2-|
A-----------4b(6)-4b(6)-(6)r4p2-4-2-----2-4---------------|
E-----------------------------------2h4-------------------|


E---------------------------------------------------------|
B---------------------------------------------------------|
G---------------------------------------------------------|
D-(4)r2-(4)r2-(4)r2 (4)r2-(4)r2-(4)r2-0-2-0---0---------0-|
A-------------------------------------------4---4-2-0-2---|
E---------------------------------------------------------|


E-------------------9b(11)-7-------------------------------|
B-----------7---7-9----------7-------------------7---------|
G-----4-6/8---9----------------9-8b(9)r8b(9)r8-8---8-13/15-|
D----------------------------------------------------------|
A-4/6------------------------------------------------------|
E----------------------------------------------------------|


E-----------------------------------------14-14-14-14-14-14-|
B-14----14-12-14b(17)-(17)r14-12-12-14/16-------------------|
G----15-----------------------------------------------------|
D-----------------------------------------------------------|
A-----------------------------------------------------------|
E-----------------------------------------------------------|


E---------------------------------------------------------|
B-17-16-16b(17)r16b(17)r16b(17)r16-16\14-12-14b(16)14-12--|
G---------------------------------------------------------|
D---------------------------------------------------------|
A---------------------------------------------------------|
E---------------------------------------------------------|


E-------------------------------------------------------------|
B-14b(16)-14-14-14-14b(15)-(15)-(15)-(15)r14-12-12-12-14b(16--|
G-------------------------------------------------------------|
D-------------------------------------------------------------|
A-------------------------------------------------------------|
E-------------------------------------------------------------|


E-14------14---------14-------------------------------19--|
B----(16)----14b(16)----(16)b(17)-(17)r14-12/-22b(24)-----|
G---------------------------------------------------------|
D---------------------------------------------------------|
A---------------------------------------------------------|
E---------------------------------------------------------|


E---------19-22b(24)-22b(24)-22b(24)-22b(24)-22b(24)r22-19-|
B-22b(24)--------------------------------------------------|
G----------------------------------------------------------|
D----------------------------------------------------------|
A----------------------------------------------------------|
E----------------------------------------------------------|


E-(21)r19-18-(19)r18-----------------19-----------------17-|
B--------------------19b(21)-19b(21)----19b(21)-17b(19)----|
G----------------------------------------------------------|
D----------------------------------------------------------|
A----------------------------------------------------------|
E----------------------------------------------------------|


E------17--------------------19\---|
B-(19)----17b(19)-17b(19)r17-----4-|
G--------------------------------4-|
D--------------------------------4-|
A--------------------------------2-|
E----------------------------------|





Comments


Popular Keith Urban tabs & chords
Don't Shut Me Out Chords
Got It Right This Time Chords
Only You Can Love Me This Way 1 Chords
Shine Chords
Somebody Like You (complete) Chords
Standing Right In Front Of You Chords
Your My Better Half Chords
Only You Can Love Me This Way 2 Tabs
Raining On Sunday Intro Tabs
Wont Let You Down Tabs


Song lyrics



↑ Back to top | Tablatures and chords are parodies/interpretations of the original songs. You may use it for private study, scholarship, research or language learning purposes only
© 2014 AZChords.com Contact us | Privacy policy | DMCA | Add/correct tabs | Request tabs | Top 50 tabs