>
 >
Hit The Ground Runnin

Hit The Ground Runnin Guitar Tabs

Keith Urban - Hit The Ground Runnin chords, tabs, tablatures, lyrics

Guitar lessons | Add/correct | Request | Top 50 tabs Artists:  A B C D E F G H I J K L M N O P Q R S T U V W X Y Z 0-9

Hit The Ground Runnin Guitar Tabs – Keith Urban

CD, Sheet music, Poster

Do you like Hit The Ground Runnin? Share with your friends now
ChordsTabsTabs v2Ukulele
-----------------------------------------------------------------------------
                             Hit The Ground Runnin’ – Keith Urban
-----------------------------------------------------------------------------

Tuning: Standard

e|-X---X-X---X-----X---X-X-----------------------------------------------|
B|-X---X-X---X-----X---X-X-----------------------------------------------|
G|-X---X-X---X-----X---X-X---7\5---5\4---2------5--5------7--7-------2---|
D|-X---X-X---X-----X---X-X---7\5---5\4---2------5--5------7--7-------2---|
A|-X---X-X---X-----X---X-X---5\3---3\2---0--0h2/3--3--0h2/5--5-------0---|
E|-X---X-X---X-----X---X-X--------------------------------------0h3------|

e|-----------------------------------------------------------------------|
B|-----------------------------------------------------------------------|
G|----------2--2------5--5-----7--7-------2~~~~~-------------------------|
D|----------2--2------5--5-----7--7-------2~~~~~-------------------------|
A|-5/3-3/2--0--0--0h2/3--3—0h2/5--5-------0~~~~~-------------------------|
E|-----------------------------------0h3---------------------------------|

Verse 1
e|-------------------------0~~~~~----------------|
B|--------------1~~~~~-----3~~~~~----------------|
G|---2~~~~~-----0~~~~~-----2~~~~~-----2~~~~~-----|
D|---2~~~~~-----2~~~~~-----0~~~~~-----2~~~~~-----|
A|---0~~~~~-----3~~~~~----------------0~~~~~-----|
E|-----------------------------------------------|

e|--------------0~~~~~---------------------------|
B|---1~~~~~-----3~~~~~---------------------------|
G|---0~~~~~-----2~~~~~-----9-9--9-9--------------|
D|---2~~~~~-----0~~~~~-----9-9--9-9---2~~~~~-----|
A|---3~~~~~----------------7-7--7-7---2~~~~~-----|
E|------------------------------------0~~~~~-----|

Chorus
e|--------------------------------------------------------------------------|
B|--------------------------------------------------------------------------|
G|--2------5--5----5--7--7----7--2--2-----------2----5--5----5--7--7---7\x--|
D|--2------5--5----5--7--7----7--2--2-----------2----5--5----5--7--7---7\x--|
A|--0--0h2/3--3----3--5--5----5--0--0--5p3-2h3--0----3--3----3--5--5---5\x--|
E|--------------------------------------------------------------------------|

e|--------------------------------------------------------------------------|
B|--------------------------------------------------------------------------|
G|-------2-------5--5-------7--7-------2---7\5--5\4-------------------------|
D|-------2-------5--5-------7--7-------2---7\5--5\4-------------------------|
A|-------0---0h2/3--3---0h2/5--5-------0---5\3--3\2-------------------------|
E|--0h3---------------------------0h3---------------------------------------|

Verse 2
e|------------------------------------------|
B|------------------------------------------|
G|--2-X-X-2-X-X-X-X-----9-9---9-9---2~~~~~--|
D|--2-X-X-2-X-X-X-X-----9-9---9-9---2~~~~~--|
A|--0-X-X-0-X-X-X-X-----7-7---7-7---0~~~~~--|
E|------------------------------------------|

Chorus
e|---------------------------------------------------|
B|---------------------------------------------------|
G|--2------5--5----5--7--7----7--2--2-----------2----|  (x4)
D|--2------5--5----5--7--7----7--2--2-----------2----|
A|--0--0h2/3--3----3--5--5----5--0--0--5p3-2h3--0----|
E|---------------------------------------------------|

At the ending of the forth, do this.
e|-----------------------------------------------------|
B|--9---9---9---9-9-9-7-7-7-9-9-9-7-7--7\5-5\4-2~~~~~--|
G|--9---9---9---9-9-9-7-7-7-9-9-9-7-7--7\5-5\4-2~~~~~--|
D|--7---7---7---7-7-7-------7-7-7------5\3-3\2-0~~~~~--|
A|-----------------------------------------------------|
E|-----------------------------------------------------|

Solo
e|-----------------------------------------------------|
B|--15^17-(picks it back down)-15--13--15^17-13--------|
G|----------------------------------------------14-----|
D|-----------------------------------------------------|
A|-----------------------------------------------------|
E|-----------------------------------------------------|

e|-----------------------------------------------------|
B|-----------------------------------------------------|
G|---------12--14^16--14---------12--14^16--14^16------|
D|--12h14-----------------12h14------------------------|
A|-----------------------------------------------------|
E|-----------------------------------------------------|

e|----------------------------------------13--15-------|
B|--15^17--15--13----------------13--15----------------|
G|-----------------14--12--14^-------------------------|
D|-----------------------------------------------------|
A|-----------------------------------------------------|
E|-----------------------------------------------------|

e|--17-15-15-17-15-15-17-15-15-17-15-15-17p15-17p15-17p15-17^19-17-15-15-17-|
B|--------------------------------------------------------------------------|
G|--------------------------------------------------------------------------|
D|--------------------------------------------------------------------------|
A|--------------------------------------------------------------------------|
E|--------------------------------------------------------------------------|

(REPEAT CHORUS)


************************************

| /   slide up
| \   slide down
| h   hammer-on
| p   pull-off
| ~   let ring
| x   Mute note
| ^   Bend

************************************





Comments


Popular Keith Urban tabs & chords
I Told You So Bass Tabs
Days Go By 1 Chords
Jeans On Chords
Romeo's Tune Chords
You Or Somebody Like You 1 Chords
Highway Dont Care Tabs
I Could Fly(mandolin) Tabs
Raining On Sunday (2) Tabs
Til Summer Comes Around Intro 2 Tabs
You'll Think Of Me Tabs


Song lyrics



↑ Back to top | Tablatures and chords are parodies/interpretations of the original songs. You may use it for private study, scholarship, research or language learning purposes only
© 2014 AZChords.com Contact us | Privacy policy | DMCA | Add/correct tabs | Request tabs | Top 50 tabs