» » »

Keith Urban, For YouSolo Tabs (ver.1)

Artists:  A B C D E F G H I J K L M N O P Q R S T U V W X Y Z # 

For YouSolo Tabs (ver.1)

Keith Urban Tabs
 Rating:
4/5 (4 votes)
For YouSolo lessons Tabs too difficult? Try these video lessons and learn fast
                -----------------------------------------------------------------

For You "Solo"- Keith Urban

-----------------------------------------------------------------


Tuning:Standard


e|-----7b10---10rb7---7-----5h7/10\7-----------------------------|
B|------------------------------------5h7/10\7-------------------|
G|---------------------------------------------------------------|
D|---------------------------------------------------------------|
A|---------------------------------------------------------------|
E|---------------------------------------------------------------|

e|---------------------------------------------------------------|
B|---------------------------------------------------------------|
G|---6b7--6b7p4--------------------------------------------------|
D|--------------7-4----------------------------------------------|
A|------------------7-6-4----------------------------------------|
E|------------------------5/7b10---------------------------------|

e|----14----14----14----14---------14----14----14----14----------|
B|----17b19-17b19-17b19-17b19------17b19-17b19-17b19-17b19-------|
G|---------------------------------------------------------------|
D|---------------------------------------------------------------|
A|---------------------------------------------------------------|
E|---------------------------------------------------------------|

e|----14----14----14---------------------------------------------|
B|----17b19-17b19-17b19--------------17b20-----------------------|
G|---------------------------------------------------------------|
D|---------------------------------------------------------------|
A|---------------------------------------------------------------|
E|---------------------------------------------------------------|

e|---------------------------------------------------------------|
B|---17b20-17b20-17b20r17--14h17-12h14-10h12-7h10----------------|
G|------------------------------------------------6h9p6----------|
D|------------------------------------------------------7--------|
A|---------------------------------------------------------------|
E|---------------------------------------------------------------|
                             + harmonic
e|---------------------------------------------------------------|
B|---15/17--15----15-17----(19)----------------------------------|
G|---14/16--14-14-14-16----(19)----------------------------------|
D|-------------16------------------------------------------------|
A|---------------------------------------------------------------|
E|---------------------------------------------------------------|

e|---------------------------------------------------------------|
B|---------------------------------------------------------------|
G|---------------------------------------------------------------|
D|---------------------------------------------------------------|
A|---------------------------------------------------------------|
E|---------------------------------------------------------------|

e|---------------------------------------------------------------|
B|---------------------------------------------------------------|
G|---------------------------------------------------------------|
D|---------------------------------------------------------------|
A|---------------------------------------------------------------|
E|---------------------------------------------------------------|

e|-----------------------------------------------------------------|
B|-----------------------------------------------------------------|
G|-----------    --------------------------------------------------|
D|-----------------------------------------------------------------|
A|-----------------------------------------------------------------|
E|-----------------------------------------------------------------|

| /  slide up
| \  slide down
| h  hammer-on
| p  pull-off
| ~  vibrato
| +  harmonic
| x  Mute note
| b  Bend
| rb Release Bend
            
Submit corrections

comments powered by Disqus
↑ Back to top | Keith Urban Tabs for For YouSolo. Lyrics for acoustic guitar and electric guitar. Tablatures and chords are parodies/interpretations of the original songs. You may use it for private study, scholarship, research or language learning purposes only