» » »

Keith Urban, Days Go By Tabs (ver.3)

Artists:  A B C D E F G H I J K L M N O P Q R S T U V W X Y Z # 

Days Go By Tabs (ver.3)

Keith Urban Tabs
 Rating:
4/5 (4 votes)
Days Go By lessons Tabs too difficult? Try these video lessons and learn fast
                 Hey guys its keith Urbans it song days go by

Legend:

Pm      = palm mute
h p     = hammer-on pull-offs
/       =slide up
\       =slide down
br      =bend release 
x       =muted strum


Intro prt.1:      this is alot slower
|-0-0-2-0----------------0-0-2-0h2p0-----------------|
|-3------3-------3-----3-3----------3-------3--------|
|-2--------4-2-4-0-2-4-0-2------------4-2-4-0--------|
|-0----------------------0---------------------------|
|----------------------------------------------------|
|----------------------------------------------------|

Intro prt.2:
|---------------------------|
|-5-5-7-5-3-------3-----3---|
|-4-4-6-4-2-4-2-4-2-2h4-2---|x4
|---------------------------|
|---------------------------|
|---------------------------|

Verse:                                           pre-chorus 1:
|------------------------------------------|  |-0----------------------|
|-3---------3---------3---------3------3-3-|  |-0------3--3------------|
|-2---------0---------2---------0------0-0-|  |-0------2--0------------|
|-0-0000000-2---------0---------0------0-0-|x2|-2------0--0------------|
|-----------2-2222222-----------2------2-2-|  |-2---------2------------|
|---------------------2-2222222-3-3333-3-3-|  |-0------2--3------------|
  pm....... pm....... pm....... pm....


Chorus:
|----------------------------------|
|-3---3---3---3---3---3---3---3----|
|-2---0---2---0---2---0---2---0----|
|-0---2---0---0---0---2---0---0----|
|-----2-------2-------2-------2----|
|---------2---3-----------2---3----|

them play the intro prt.2 x2
then its the verse
then the pre-chorus 1
then the chorus
then the intro pret.2 x4
and the solo is played over this

SOLO:
|----------------------------------------------------------|
|-------7---------------------------7----------------------|
|-7h9-9---7h9p7-------7-----7-7h9-9---7h9p7-------7-----7--|
|---------------9-7-9---7-9-----------------9-7-9---7-9----|
|----------------------------------------------------------|
|----------------------------------------------------------|

|---------------5-5/7-7/10-12---12p10--12p10-12p10--12p10--12p10-12p12----|
|-------7---------------------10-----10-----------10-----10---------------|
|-7h9-9---9-7-------------------------------------------------------------|
|-------------9-----------------------------------------------------------|
|-------------------------------------------------------------------------|
|-------------------------------------------------------------------------|

|---12p10----12br--|
|-10------10-------|
|------------------|
|------------------|
|------------------|
|------------------|

Brigde:
|--------------------------------|
|-2------3------2------3-x3-x3---|
|-2------0------2------0-x2-x0---|
|-2------0------2------2-x0-x0---|
|-0------2------0------2-x--x2---|
|--------3---------------x2-x3---|


Pre-chorus 2
|-------------------------------------------------------------------------|
|-3--------3---------3--------3--------3------3------3-----3---3-3-3-3\---|
|-2--------0---------2--------0--------2------0------2-----0---0-0-0-0\---|
|-0-000000-2---------0--------0--------0-0-00-2------0-----0---0-0-0-0\---|
|----------2-2222222----------2---------------2-2-22-------2---2-2-2-2\---|
|--------------------2-222222-3-333333---------------2-222-3---3-3-3-3\---|


Play the chorus x2 
then play this

Outro:
|-------------------------------|-----|
|-3---3---3---3---3---3---3---3-|--3--|
|-2---0---2---0---2---0---2---0-|--2--|
|-0---0---0---0---0---0---0---0-|--0--|
|-----2-------2-------2-------2-|-----|
|-----3-------3-------3-------3-|-----|



So there you have it
            
Submit corrections

comments powered by Disqus
↑ Back to top | Keith Urban Tabs for Days Go By. Lyrics for acoustic guitar and electric guitar. Tablatures and chords are parodies/interpretations of the original songs. You may use it for private study, scholarship, research or language learning purposes only