» » »

Keith Richards, You Got The Silver Tabs (ver.1)

Artists:  A B C D E F G H I J K L M N O P Q R S T U V W X Y Z # 

You Got The Silver Tabs (ver.1)

Keith Richards Tabs
 Rating:
4/5 (4 votes)
You Got The Silver lessons Tabs too difficult? Try these video lessons and learn fast
                Keith Richards - You Got The Silver

Slightly different take on Keith's song, fuller than the original. 
triplet feel (12/8) 

                                                            
|4/--2--0-----------------5--------5--|--4/--2--0-----------------0--------0|
|----------------0--------------------|------------------0--------0--------0|
|-------------------------------------|-------------------------------------|
|----------0-----------------0--------|------------0------------------------|
|-------------------------------------|------------------------------0--2---|
|0------------------0-----------------|--0------------------0---------------|
                                            
---------0---------------------------|------------------0--------0-----------|
--2/--3------------------------------|---------------------------------------|
-------------------------------------|---------------------------------------|
------------0----------/5--/5-----5--|--5/--3--0-----------0--------------0--|
-------------------------------------|------------------------------0--2-----|
--0--------------0-------------------|------------0--------------------------|

                                             
---------5-------------5---5-----5--|--2/--4--0-----------------0--------0--|
--2/--5-----------------------------|---------------------------------------|
------------------------------------|------------------0--------------------|
------------5-------------/5--------|------------0--------------------------|
--2/--5-----------------------------|------------------------------0--2-----|
-----------------5------------------|--0------------------0-----------------|

          
-----0-------------------------|--------------------------------|
-----2-------------5-----5-----|------------5-------------------|
------------2/--5-----5-----5--|--2/-----5----------------------|
-------------------------------|-------------------------5/--7--|
--2----------------------------|--------------------------------|
-------------------------------|--------------------------------|
                      
---------7-----------------------------|--7\-----0--------0--|
--4/--7-----7/--5---------7--/7--------|--7\--------0--2-----|
--4/--7------------5/--7---------------|--7\-----------------|
---------------------------------/7----|--7\-----------------|
---------------------------------------|--7\-----------------|
---------------------------------------|---------------------|

  
Hey 
/babe, what`s in your /eyes I saw them 
/flashing, like airplane /lights You fill my 
/cup babe, that`s for /sure But I must 
/come back, for a little /more You got my 

/heart, you got my /soul You got the 
/silver, you got the /gold You got the 
/diamonds, from the /mines And that`s 
/all right, it`ll buy some /time - [break]

Tell me 
/honey, what should I /do When I am 
/hungry, and thirsty /too Feeling 
/foolish, and that`s for /sure Just waiting 
/here, at your kitchen /door Hey 

/baby, what`s in your /eyes Is that the 
/diamonds, from the /mines What`s that 
/laughing, in your /smile I don`t 
/care, no I don`t /care Oh 

/baby, you got the /soul You got the
/ silver, you got the /gold A flash of 
/love, just made me /blind I don`t 
/care, no that`s no big sur/prise - [outtro]
            
Submit corrections

comments powered by Disqus
↑ Back to top | Keith Richards Tabs for You Got The Silver. Lyrics for acoustic guitar and electric guitar. Tablatures and chords are parodies/interpretations of the original songs. You may use it for private study, scholarship, research or language learning purposes only