» » »

Keepsake, Third Wish Tabs (ver.1)

Artists:  A B C D E F G H I J K L M N O P Q R S T U V W X Y Z # 

Third Wish Tabs (ver.1)

Keepsake Tabs
 Rating:
4/5 (4 votes)
Third Wish lessons Tabs too difficult? Try these video lessons and learn fast
1
                Keepsake is a great band but there are so few tabs of Keepsake.
Lets tab some keepsake guys..
I tabbed this song very quickly, it's an easy song and it must be O.K..
Now im gonna tab "Sweet White Lies"
and if you like hardcore check out my friends hot band Lifelock
mülteci crewa selam yazışı

INTRO / CHORUS

Guitar 1


E5(II)   X 2   ->   C5    X 2  ->    G5    X 2  ->   B5   X 2
|---------------|---------------|---------------|--------------|
|---------------|---------------|---------------|--------------|
|--9-9--9999----|--5-5--5555----|---------------|--4-4-4444----|
|--9-9--9999----|--5-5--5555----|--5-5--5555----|--4-4-4444----|
|--7-7--7777----|--3-3--3333----|--5-5--5555----|--2-2-2222----|
|---------------|---------------|--3-3--3333----|--------------|




Guitar 2

Leads are played at the second time of the each chord

|---------------|---------------|---------------|--------------------|
|---------------|---------------|---------------|--------------------|
|--12-11--12-11-|--12-14--12-11-|--12-11--12-11-|--------12-12121212-|
|--xx-x---xx-x--|--xx-xx--xx-x--|--xx-x---xx-x--|--------x--xxxxxxxx-|
|--10-9---10-9--|--10-12--10-9--|--10-9---10-9--|--------10-10101010-|
|---------------|---------------|---------------|--------------------|


VERSE

Guitar 1
Guitar 2 plays high octaves
|---------------|---------------|---------------|--------------------------|
|---------------|---------------|---------------|--------------------------|
|--9------------|---------------|--12--11-------|--14-12-11-14-12-12-14-12-|
|--x------------|--10-----------|--xx--X--------|--xx-xx-x--xx-xx-x--xx-xx-|
|--7------------|--x------------|--10--9--------|--12-10-9--12-10-9--12-10-|
|---------------|--8------------|---------------|--------------------------|

BRIDGE(?)

Dist Part

E5 (II)           C5              G5              B5
|---------------|----------------|---------------|----------------|
|---------------|----------------|---------------|----------------|
|--9999-9-------|----------------|---------------|----------------|
|--9999-9-------|-10101010--10---|-5555-5--------|-9999-9---------|
|--7777-7-------|-10101010--10---|-5555-5--------|-9999-9---------|
|---------------|--8-8-8-8--8----|-3333-3--------|-7777-7---------|
  pm--|           pm-----|        pm--|           pm--|


Clean Part
E5 (I)           C5                 G5              B5
|----------------|-----------------|------------------|------------------|
|----------------|-----------------|------------------|------------------|
|----------------|-----5-----5-----|------------------|-----4-----4------|
|-----2-----2----|---5---5-------5-|-----5-----5------|---4---4-------4--|
|---2---2------2-|-3-------3---3---|---5---5-------5--|-2-------2---2----|
|-0-------0--0---|-----------------|-3-------3---3----|------------------|

OUTRO

You play the INTRO/CHORUS part again 
ends with an 
E5(II) and its octave

|---------------|
|---------------|
|-------9-------|
|-------X-------|
|-------7-------|
|---------------|

that's all of the riffs, you can figure out the order..
            
Submit corrections

comments powered by Disqus
↑ Back to top | Keepsake Tabs for Third Wish. Lyrics for acoustic guitar and electric guitar. 1 Tablatures and chords are parodies/interpretations of the original songs. You may use it for private study, scholarship, research or language learning purposes only